» » »

Maximum The Hormone - アンビリーバボー ~スヲミンツ ホケレイロ ミフエホ~ Tabs

Artists:  A B C D E F G H I J K L M N O P Q R S T U V W X Y Z # 

アンビリーバボー ~スヲミンツ ホケレイロ ミフエホ~ Tabs

(ver. 1) Click to play this song!
Maximum The Hormone
 Rating:
2.3/5 (22 votes)

 アンビリーバボー ~スヲミンツ ホケレイロ ミフエホ~ lessons Tabs too difficult? Try these video lessons and learn fast
 
                Tuning:Dadgbe 

            Main Riff/verse 1
e|---------------------------------------------------------------------------|
B|---------------------------------------------------------------------------|
G|---------------------------------------------------------------------------|
D|-12\-------5-7-5--3--3-5-3-0------5-7-5--3--3-5-3-0------------------------|
A|-12\--------------------------0-0------------------------------------------|
D|--------0---------------------0-0------------------------------------------|
          chorus
e|---------------------------------------------------------------------------|
B|-------------------------------(mute 2nd time on)--------------------------|
G|---------------------------------------------------------------------------|
D|--0-0-----0-0---3-5---------------0-0---0-0-----3-5------------------------|
A|--0-0-----0-0---3-5---------------0-0---0-0-----3-5------------------------|
D|--0-0-----0-0---3-5---------------0-0---0-0-----3-5------------------------|
             verse 2 (with wah)
e|---------------------------------------------------------------8-----------|
B|----------------------------------------------------------8-10-------------|
G|---7-7-7-7-7-10-----7-7-7----7-10--(3x)--7-7-7-7-10-7---7------------------|
D|--------------------------10-----------------------------------------------|
A|---------------------------------------------------------------------------|
D|---------------------------------------------------------------------------|
             New Bridge/riff
e|---------------------------------------------------------------------------|
B|---------------------------------------------------------------------------|
G|---------------------------------------------------------------------------|
D|--0-3-2-0-3-2-0-3-2-0-3-2-0-6------0~~~------------------------------------|
A|--0-3-2-0-3-2-0-3-2-0-3-2-0-6------0~~~-(before bass part)-----------------|
D|--0-3-2-0-3-2-0-3-2-0-3-2-0-6------0~~~------------------------------------|
             Ending
e|---------------------------------------------------------------------------|
B|---------------------------------------------------------------------------|
G|---------------------------------------------------------------------------|
D|-0--0-0-0-0-0-0-3--0----0--0-0-0-0-3-5-3-----0-----------------------------|
A|-0--0-0-0-0-0-0-3--0----0--0-0-0-0-3-5-3-----0--(end on)-------------------|
D|-0--0-0-0-0-0-0-3--0----0--0-0-0-0-3-5-3-----0-----------------------------|
      . . . . . .            . . . .           .
            
Submit corrections


        アンビリーバボー ~スヲミンツ ホケレイロ ミフエホ~ lessons Hard to play? Try these video lessons and learn fast アンビリーバボー ~スヲミンツ ホケレイロ ミフエホ~ lessons
        
↑ Back to top | Tablatures and chords for acoustic guitar and electric guitar, ukulele, drums are parodies/interpretations of the original songs. You may use it for private study, scholarship, research or language learning purposes only