Home » M » Matt Wertz »

Matt Wertz - Red Meets Blue Tabs

Artists:  A B C D E F G H I J K L M N O P Q R S T U V W X Y Z # 

Red Meets Blue Tabs

(ver. 2) Click to play this song!
Matt Wertz
----------------------------------------------------------------------------
                        RED MEETS BLUE - Matt Wertz
----------------------------------------------------------------------------

Tuning: standard, down half a step

INTRO/VERSE: (* = slap)
e|--------*-------*---------*----------*-----------------------------------|
B|----3---*-----7-*-----3---*-----0--7-*-----------------------------------|
G|----2p0-*-----7-*-----2p0-*------0-7-*-----------------------------------|
D|--------*-------*---------*----------*-----------------------------------|
A|--------*-------*---------*----------*-----------------------------------|
E|---3----*--3/7--*--7\3----*--3/7-----*--7\3(start over)------------------|
**to change it up a bit, hit B and^^G open right before the 7s**

CHORUS:
e|------------*--------*---------*--------*-----------*--------*-----------|
B|--------8/7-*-----7--*-----8/7-*------3-*-------8/7-*-----7--*-----------|
G|--------7---*-----7--*-----7---*------4-*-------7---*-----7--*-----------|
D|------------*--------*---------*--------*-----------*--------*-----------|
A|-------5----*--5-----*---------*--------*------5----*--5-----*-----------|
E|---7h9------*----5---*--5-7----*--7-3---*--3h5------*----5---*-----------|

e|----------*--------*-----------------------------------------------------|
B|------8/7-*------3-*-----------------------------------------------------|
G|------7---*------4-*-----------------------------------------------------|
D|----------*--------*-----------------------------------------------------|
A|----------*--------*-----------------------------------------------------|
E|---5-7----*--7-3---*--3 (back to verse)----------------------------------|

VERSE(again):
e|--------*-------*---------*----------*-----------------------------------|
B|----3---*-----7-*-----3---*-----0--7-*-----------------------------------|
G|----2p0-*-----7-*-----2p0-*------0-7-*-----------------------------------|
D|--------*-------*---------*----------*-----------------------------------|
A|--------*-------*---------*----------*-----------------------------------|
E|---3----*--3/7--*--7\3----*--3/7-----*--7\3(start over)------------------|

CHORUS(again):
e|------------*--------*---------*--------*-----------*--------*-----------|
B|--------8/7-*-----7--*-----8/7-*------3-*-------8/7-*-----7--*-----------|
G|--------7---*-----7--*-----7---*------4-*-------7---*-----7--*-----------|
D|------------*--------*---------*--------*-----------*--------*-----------|
A|-------5----*--5-----*---------*--------*------5----*--5-----*-----------|
E|---7h9------*----5---*--5-7----*--7-3---*--3h5------*----5---*-----------|

e|----------*--------*-----------------------------------------------------|
B|------8/7-*------3-*-----------------------------------------------------|
G|------7---*------4-*-----------------------------------------------------|
D|----------*--------*-----------------------------------------------------|
A|----------*--------*-----------------------------------------------------|
E|---5-7----*--7-3---*--3(to bridge)---------------------------------------|
**your fingers are already where they need to be for the first chord of the bridge**

BRIDGE:
e|-------------------------------------------------------------------------|
B|---3-3--3---5-5--7-7--7---5-5--------------------------------------------|
G|---4-4--4---6-6--7-7--7---6-6--------------------------------------------|
D|---0-0--0---0-0--0-0--0---0-0--(repeat)----------------------------------|
A|---x-x--x---x-x--x-x--x---x-x--------------------------------------------|
E|---3-3--3---5-5--7-7--7---5-5--------------------------------------------|
**the strum is easy, these are the only 3 chords for the bridge. just listen to the song 
pick the rest up.**

CHORUS(until song ends):
e|---------*--------*---------*--------*-----------*--------*--------------|
B|-----8/7-*-----7--*-----8/7-*------3-*-------8/7-*-----7--*--------------|
G|-----7---*-----7--*-----7---*------4-*-------7---*-----7--*--------------|
D|---------*--------*---------*--------*-----------*--------*--------------|
A|----5----*--5-----*---------*--------*------5----*--5-----*--------------|
E|---------*----5---*--5-7----*--7-3---*--3h5------*----5---*--------------|

e|----------*--------*-----------------------------------------------------|
B|------8/7-*------3-*-----------------------------------------------------|
G|------7---*------4-*-----------------------------------------------------|
D|----------*--------*-----------------------------------------------------|
A|----------*--------*------5----------------------------------------------|
E|---5-7----*--7-3---*--3h5------------------------------------------------|

**This song is not that hard, and it's a pretty good panty-dropping weapon, if you can 
it good. Good luck, fellow woo-ers and let me know if this tab needs revision, if it 


| /  slide up
| \  slide down
| h  hammer-on
| p  pull-off
| ~  vibrato
| +  harmonic
| x  Mute note
============================================================================
            
Submit corrections

↑ Back to top | Tablatures and chords for acoustic guitar and electric guitar, ukulele, drums are parodies/interpretations of the original songs. You may use it for private study, scholarship, research or language learning purposes only