Home » M » Matt Wertz »

Matt Wertz - 519 Tabs

Artists:  A B C D E F G H I J K L M N O P Q R S T U V W X Y Z # 

519 Tabs

(ver. 1) Click to play this song!
Matt Wertz
Matt Wertz - 5:19
Standard tuning (EADGBe)
Fun finger strumming song. As accurate as my ears could discern. Enjoy :)

Intro:
e|--------x--------x--------x--------x--------x--------x----------------x-----|
B|------0-x------0-x------2-x------0-x------0-x------0-x--2-------------x-----|
G|-----4--x--4-----x-----2--x--1-----x-----4--x--4-----x--2-------------x-----|
D|----2---x--1-----x----2---x--2-----x----2---x--1-----x--2-------------x-----|
A|---4----x--------x---0----x--2-----x---4----x--------x--0-------------x-----|
E|--------x--------x--------x--------x--------x--------x----------------x-----|

Verse: "I'd be lyin' through my teeth..."
e|--------x--------x--------x--------x--------x--------x----------------x-----|
B|------0-x------0-x------2-x------0-x------0-x------0-x--2-------------x-----|
G|-----4--x--4-----x-----2--x--1-----x-----4--x--4-----x--2-------------x-----|
D|----2---x--1-----x----2---x--2-----x----2---x--1-----x--2-------------x-----|
A|---4----x--------x---0----x--2-----x---4----x--------x--0-------------x-----|
E|--------x--------x--------x--------x--------x--------x----------------x-----|

Verse cont'd: "July came, I thought..."
e|--------x--------x--------x--------x--------x--------x--------x-------------|
B|------0-x------0-x------2-x------0-x------2-x--2-----x------2-x--2----------|
G|-----4--x--4-----x-----2--x--1-----x-----2--x--2-----x-----2--x--2---2-1----|
D|----2---x--1-----x----2---x--2-----x----4---x--4-----x----2---x--2------0---|
A|---4----x--------x---0----x--2-----x--------x--------x---0----x--0-------2--|
E|--------x--------x--------x--------x---2----x--------x--------x-------------|

Verse cont'd: "Truth be told..."
e|--------x--------x--------x--------x----|
B|------2-x--2-----x------0-x--0-----x----|
G|-----2--x--2-----x------4-x--4-----x----|
D|----4---x--4-----x-----4--x--4-----x----|
A|--------x--------x---2----x--2-----x----|
E|---2----x--------x--------x--------x----|

Chorus: "One eye on the clock..."
e|--------x--------x--------x--------x--------x------5-x--------x-------------|
B|------0-x--0-----x------4-x--4-----x------5-x--5-----x------0-x--0----------|
G|------1-x--1-----x------4-x--4-----x------6-x--6-----x------2-x--2----------|
D|-----2--x--2-----x-----6--x--6-----x-----7--x--7-----x-----4--x--4----------|
A|--------x--------x--------x--------x--------x--------x--------x-------------|
E|---0----x--0-----x---4----x--4-----x---5----x--5-----x---2----x--2----------|

Chorus cont'd: "If I could talk to you..."
e|--------x--------x--------x--------x--------x-----------5~------------------|
B|------0-x--0-----x------4-x--4-----x------5-x--5---5----5~------------------|
G|------1-x--1-----x------4-x--4-----x------6-x--6---6----5~------------------|
D|-----2--x--2-----x-----6--x--6-----x-----7--x--7---7----7~------------------|
A|--------x--------x--------x--------x--------x-----------7~------------------|
E|---0----x--0-----x---4----x--4-----x---5----x--5---5----5~------------------|

Pre-verse: (same as intro except for the hammer)
e|--------x--------x--------x--------x--------x--------x----------------x-----|
B|------0-x------0-x------2-x------0-x------0-x------0-x--2-------------x-----|
G|-----4--x--4-----x-----2--x--0h1---x-----4--x--4-----x--2-------------x-----|
D|----2---x--1-----x----2---x-2------x----2---x--1-----x--2-------------x-----|
A|---4----x--------x---0----x--------x---4----x--------x--0-------------x-----|
E|--------x--------x--------x--------x--------x--------x----------------x-----|

Verse: "We both know that I..."
e|--------x--------x--------x--------x--------x--------x-----------0-------0--|
B|------0-x------0-x------2-x------0-x------0-x------0-x--2---------2---0h2---|
G|-----4--x--4-----x-----2--x--1-----x-----4--x--4-----x--2----------0h1------|
D|----2---x--1-----x----2---x--2-----x----2---x--1-----x--2-------------------|
A|---4----x--------x---0----x--2-----x---4----x--------x----------------------|
E|--------x--------x--------x--------x--------x--------x----------------------|

Verse cont'd: "You said 'baby, don't worry'..."
e|--------x--------x--------x--------x--------x--------x--------x-------------|
B|------0-x------0-x------2-x------0-x------2-x--2-----x------2-x--2----------|
G|-----4--x--4-----x-----2--x--1-----x-----2--x--2-----x-----2--x--2---2-1----|
D|----2---x--1-----x----2---x--2-----x----4---x--4-----x----2---x--2------0---|
A|---4----x--------x---0----x--2-----x--------x--------x---0----x--0-------2--|
E|--------x--------x--------x--------x---2----x--------x--------x-------------|

Verse cont'd: "I said, I miss you right now..."
e|--------x--------x--------x--------x----|
B|------2-x--2-----x------0-x--0-----x----|
G|-----2--x--2-----x------4-x--4-----x----|
D|----4---x--4-----x-----4--x--4-----x----|
A|--------x--------x---2----x--2-----x----|
E|---2----x--------x--------x--------x----|

Chorus: "One eye on the clock..."
e|--------x--------x--------x--------x--------x------5-x--------x-------------|
B|------0-x--0-----x------4-x--4-----x------5-x--5-----x------0-x--0----------|
G|------1-x--1-----x------4-x--4-----x------6-x--6-----x------2-x--2----------|
D|-----2--x--2-----x-----6--x--6-----x-----7--x--7-----x-----4--x--4----------|
A|--------x--------x--------x--------x--------x--------x--------x-------------|
E|---0----x--0-----x---4----x--4-----x---5----x--5-----x---2----x--2----------|

Chorus cont'd: "If I could talk to you..."
e|--------x--------x--------x--------x--------x----------------5~-------------|
B|------0-x--0-----x------4-x--4-----x------5-x--5---5----5~---5~-------------|
G|------1-x--1-----x------4-x--4-----x------6-x--6---6----5~---5~-------------|
D|-----2--x--2-----x-----6--x--6-----x-----7--x--7---7----7~---7~-------------|
A|--------x--------x--------x--------x--------x-----------7~---7~-------------|
E|---0----x--0-----x---4----x--4-----x---5----x--5---5----5~---5~-------------|

Bridge: "Baby, take all the time you need..."
e|--------x--------x------0-x--0-----x--------x--------x------0-x--0~---------|
B|------0-x------0-x--------x--------x------0-x------0-x--------x-------------|
G|-----4--x--2-----x-----1--x--1-----x-----4--x--2-----x-----1--x--1~---------|
D|----2---x--2-----x----2---x--2-----x----2---x--2-----x----2---x--2~---------|
A|---0----x--0-----x--------x--------x---0----x--0-----x--------x-------------|
E|--------x--------x---0----x--0-----x--------x--------x---0----x--0~---------|

Bridge cont'd: "I'll be here... waiting..."
e|--------x--------x------0-x--0-----x--------x--------------0~---------------|
B|------0-x------0-x--------x--------x------0-x--0-----------2~---------------|
G|-----4--x--2-----x-----1--x--1-----x-----2--x--2-----2-----2~---------------|
D|----2---x--2-----x----2---x--2-----x----2---x--2--------2--2~---------------|
A|---0----x--0-----x--------x--------x---0----x--0-----------0~---------------|
E|--------x--------x---0----x--0-----x--------x-------------------------------|

Repeat chorus once with alternate rhythm (listen for it) and once more normally:
e|--------x--------x--------x--------x--------x------5-x--------x-------------|
B|------0-x--0-----x------4-x--4-----x------5-x--5-----x------0-x--0----------|
G|------1-x--1-----x------4-x--4-----x------6-x--6-----x------2-x--2----------|
D|-----2--x--2-----x-----6--x--6-----x-----7--x--7-----x-----4--x--4----------|
A|--------x--------x--------x--------x--------x--------x--------x-------------|
E|---0----x--0-----x---4----x--4-----x---5----x--5-----x---2----x--2----------|

Chorus cont'd: "If I could talk to you..."
e|--------x--------x--------x--------x--------x-----------5-5---5~----5~------|
B|------0-x--0-----x------4-x--4-----x------5-x--5---5----5-5---5~------5~----|
G|------1-x--1-----x------4-x--4-----x------6-x--6---6----5-5---5~---------5~-|
D|-----2--x--2-----x-----6--x--6-----x-----7--x--7---7----7-7---7~------------|
A|--------x--------x--------x--------x--------x-----------7-7---7~------------|
E|---0----x--0-----x---4----x--4-----x---5----x--5---5----5-5---5~------------|

Outro: "Oooh... ain't letting go..." (same as pre-verse)
e|--------x--------x--------x--------x--------x--------x--0~------------------|
B|------0-x------0-x------2-x------0-x------0-x------0-x--2~------------------|
G|-----4--x--4-----x-----2--x--0h1---x-----4--x--4-----x--2~------------------|
D|----2---x--1-----x----2---x-2------x----2---x--1-----x--2~------------------|
A|---4----x--------x---0----x--------x---4----x--------x--0~------------------|
E|--------x--------x--------x--------x--------x--------x----------------------|
            
Submit corrections

↑ Back to top | Tablatures and chords for acoustic guitar and electric guitar, ukulele, drums are parodies/interpretations of the original songs. You may use it for private study, scholarship, research or language learning purposes only