Home » M » Matt Wertz »

Matt Wertz - I'm Sorry Mary Tabs

Artists:  A B C D E F G H I J K L M N O P Q R S T U V W X Y Z # 

I'm Sorry Mary Tabs

(ver. 2) Click to play this song!
Matt Wertz
(Intro)
Matt Wertz
I'm Sorry Mary

standard tuning

e|--------------------------------------------------|
b|-----5--------------------------------------------|
g|-------7----7-6----2-4-----2-4--------------------|
d|----0-0----0-0----0-0-----0-0---------------------|
a|----------0---------------------------------------|
E|---7-------------3-------3------------------------|

 ---------------------------------------------------|
 -----5-------8-7-----------------------------------|
 -------7-------------2-0----2p0--------------------|
 ----0-0----0--0-----0-0----0-----------------------|
 ----------0----------------------------------------|
 ---7---------------3------3------------------------|
            
Submit corrections

↑ Back to top | Tablatures and chords for acoustic guitar and electric guitar, ukulele, drums are parodies/interpretations of the original songs. You may use it for private study, scholarship, research or language learning purposes only