Home » M » Matt Wertz »

Matt Wertz - 519 Tabs

Artists:  A B C D E F G H I J K L M N O P Q R S T U V W X Y Z # 

519 Tabs

(ver. 2) Click to play this song!
Matt Wertz
Matt Wertz - 5:19
Listen to the song for picking pattern and sequence

Tuning: half step down
[Chords]

C#m7 - x 4 2 4 5 x
B    - x 2 4 4 4 x  *NOTE this is easier way
B*   - x 2 1 4 x x (This is actual way)
A    - x 0 2 2 2 x
E    - 0 2 2 1 0 x
F#m  - 2 4 4 2 2 2
E*   - x 7 9 9 9 x  (must use this in chorus)
G#m  - 4 6 6 4 4 4
A    - 5 7 7 6 5 5
Am   - 5 7 7 5 5 5
F#7su- x 9 9 8 7 0 [bridge]
E6su4- x 7 7 6 5 0 [bridge]


[Intro/Verse]


       I'd be lyin through my teeth.... that week came....

      C#m7      B*        A      E      C#m7      B*    A
e|--------x--x--x--x------x--x--x---|------x--x--x--x--x--|
B|--------5--x--x--x------2--x--0---|------5--x--x--x--2--|
G|------4-4--x--4--x------2--x--1---|----4-4--x--4--x--2--|
D|-----2--2--x--1--x---2--2--x--2---|---2--2--x--1--x--2--|
A|----4------x--2--x--0-0----x--2---|--4------x--2--x--0--|
E|-----------x--x--x---------x--0---|---------x--x--x--x--|

[Pre Chorus]
  til you said you need some space...    truth be told....
       F#m      A                         F#m          B
e|----2---2---x--x------------------|----2---2-------x---x---|
B|----2---2---2--2------------------|----2---2-------4---4---|
G|----2---2---2--2------------------|----2---2-------4---4---|
D|----4---4---2--2------------------|----4---4-------4---4---|
A|----4---4---0--0------------------|----4---4-------2---2---|
E|----2---2---x--x------------------|----2---2-------x---x---|


[Chorus]
      E*               G#m            A              F#m
e|----x--x--x---x----4--x--4---x----5--x--5---x----2--x--2--|
B|----9--x--9---x----4--x--4---x----5--x--5---x----2--x--2--|
G|----9--x--9---x----4--x--4---x----6--x--6---x----2--x--2--|
D|----9--x--9---x----6--x--6---x----7--x--7---x----4--x--4--|
A|----7--x--7---x----6--x--6---x----7--x--7---x----4--x--4--|
E|----x--x--x---x----4--x--4---x----5--x--5---x----2--x--2--|


  (2nd time through)
      E*               G#m             A           Am
e|----x--x--x---x----4--x--4---x----5--x--5---x----5--------|
B|----9--x--9---x----4--x--4---x----5--x--5---x----5--------|
G|----9--x--9---x----4--x--4---x----6--x--6---x----5--------|
D|----9--x--9---x----6--x--6---x----7--x--7---x----7--------|
A|----7--x--7---x----6--x--6---x----7--x--7---x----7--------|
E|----x--x--x---x----4--x--4---x----5--x--5---x----5--------|

[Bridge]

   Baby take all ..... I'll be here...
   F#7su  E6su4   E
e|----0--x--0--x--0---|
B|----7--x--5--x--0---|    1st part
G|----8--x--6--x--1---|
D|----9--x--7--x--2---|
A|----9--x--7--x--2---|
E|----x--x--x--x--0---|


     F#m     A   Am
e|----2------5---5----|
B|----2------5---5----|    2nd part
G|----2------6---5----|
D|----4------7---7----|
A|----4------7---7----|
E|----2------5---5----|


then back to chorus and outro. listen to the song to figure it out, these are all the 
Have fun!!
            
Submit corrections

↑ Back to top | Tablatures and chords for acoustic guitar and electric guitar, ukulele, drums are parodies/interpretations of the original songs. You may use it for private study, scholarship, research or language learning purposes only