Home » M » Matt Costa »

Matt Costa - Sunshine Tabs

Artists:  A B C D E F G H I J K L M N O P Q R S T U V W X Y Z # 

Sunshine Tabs

(ver. 2) Click to play this song!
Matt Costa
-------------------------------------------------------------------------------
                             Sunshine - Matt Costa
-------------------------------------------------------------------------------

Tuning:standard
Capo I

Chords relative to capo

Intro

|---------------2-2-|---2-2---|
|---------------3-3-|---3-3---|
|-4p2-----------2-2-|---2-2---| x6
|----3h4---0--------|-0-------|
|--------0---0------|-0-------|
|-------------------|---------|

Chorus x2

 D   A     G                  A
Sunshine, I'd really like to meet you oh my
 D   A          Bm          G
Sunshine even though your skies are
 D               A             Bm            G
Blue your drying up my bed and how can I get any rest now?
 D         A             D              D
Sha la la la la la la la la


Someday....

Chords for SOLO..

Dx4 AX4 Dx4 Ax4
Gx2 Ax2 Bmx2 Ax2
Dx2 Ax4 Gx2 Ax2

Solo (relative to capo): 2nd Guitar

|-----5----5----5----5-------5/7-5---5--------5----5----5----5---------10--------------|
|-5h7--5h7--5h7--5h7---------------/7-7---5h7--5h7--5h7--5h7-------/12----12/10--7-7/8-|
|---------------------------------------7----------------------------------------------|
|--------------------------------------------------------------------------------------|
|--------------------------------------------------------------------------------------|
|--------------------------------------------------------------------------------------|

|----5-5-4--5/7-5------------------------------5---5------------------------5----------|
|-/7-----5--------5h7p5---7p5--------------5/7--/7---7----7---7---------5/7------------|
|-----------------------------7------------------------/9--/9---9--5/7--------7~~~~~---|
|--------------------------------------------------------------------------------------|
|--------------------------------------------------------------------------------------|
|--------------------------------------------------------------------------------------|


Chorus x 2

Little bit at the end...played real fast

|-5---------------------------------------|---------------------------------|
|--7-5-----------5h7p5---7-5--------------|---------------------------------|
|------7-6-7-6-7-------------7------------|---------------------------------|
|-----------------------------------------|---------------------------------|
|-----------------------------------------|---------------------------------|
|-----------------------------------------|---------------------------------|

| /  slide up
| \  slide down
| h  hammer-on
| p  pull-off
| ~  vibrato
| +  harmonic
| x  Mute note
===============================================================================
            
Submit corrections

↑ Back to top | Tablatures and chords for acoustic guitar and electric guitar, ukulele, drums are parodies/interpretations of the original songs. You may use it for private study, scholarship, research or language learning purposes only