Home » M » Matt Costa »

Matt Costa - Wash Away Tabs

Artists:  A B C D E F G H I J K L M N O P Q R S T U V W X Y Z # 

Wash Away Tabs

(ver. 1) Click to play this song!
Matt Costa
Wash Away -> Matt Costa

This is an awsome song and there were no other good tabs of it so I did my best, tell me 

Part A
|-------------------------------|--------------------------------|
|-------------------------------|--------------------------------|
|-------------------------------|--------------------------------|
|-------11-----11------9-----9--|-------11-----11-----11-----11--|
|---9h12---9h12----7h11—-7h11——-|---9h12---9h12---9h12---9h12----|
|-------------------------------|--------------------------------|
     Float     down    stream
     Hea - vens       high
|-------------------------------|--------------------------------|
|-------------------------------|--------------------------------|
|-------------------------------|--------------------------------|
|-------------------------------|-------11-----11-----11-----11--|
|------9-----9-----11-----11----|---9h12---9h12---9h12---9h12----|
|--7h11—-7h11—-9h12---9h12------|--------------------------------|
     Rivers  of   trees
     So        you     fly
|-------------------------------|----------------------------|
|-------------------------------|----------------------------|
|-------------------------------|----------------------------|
|-------11-----11------9-----9--|----------------------------|
|---9h12---9h12----7h11—-7h11——-|------9-----9-----9-----9---|
|-------------------------------|--7h11—-7h11—-7h11--7h11----|
     Flow   down   stream
     Catch   your   dreams
|-------------------------------|--------------------------------|
|-------------------------------|--------------------------------|
|-------------------------------|--------------------------------|
|-------------------------------|-------11-----11-----11-----11--|
|-------11-----11------9-----9--|---9h12---9h12---9h12---9h12----|
|---9h12---9h12----7h11—-7h11---|--------------------------------|
   Catch    your    wings
   In       the        sky
|--------------------------------|
|--------------------------------|
|--------------------------------|
|-------11-----11-----11-----11--|
|---9h12---9h12---9h12---9h12----|
|--------------------------------|
_________________________________________


Part B
Let ring…
|--------------------|-------------------------|
|--------------------|-------------------------|
|--------------------|-------------------------|
|----7---7----7---7--|----11----11---11----11--|
|--5---9----5---9----|--9----12----9----12-----|
|--------------------|-------------------------|
           But   the   glaciers      have frozen your feet

|--------------------|-------------------------|
|--------------------|-------------------------|
|--------------------|-------------------------|
|----7---7----7---7--|----11----11---11----11--|
|--5---9----5---9----|--9----12----9----12-----|
|--------------------|-------------------------|
           I    can't    wait             for    eternity

|-----------------------|----------------------|
|-----------------------|----------------------|
|-----------------------|----------------------|
|----9----9-----9----9--|---7---7-----7---7----|
|------11---------11----|-----9---------9------|
|---7----------7--------|--5---------5---------|
          And   so   you   watched  me wash    away

|-----------------------|----------------------|
|-----------------------|----------------------|
|-----------------------|----------------------|
|----9----9-----9----9--|---7---7-----7---7----|
|------11---------11----|-----9---------9------|
|---7----------7--------|--5---------5---------|
          But   maybe   we'll    catch   up    someday

|----------------------2-------------------------------|
|----------------------2-------------------------------|
|----------------------3-------------------------------|
|---9----9----9----9---4-------------------------------|
|-7---11----7---11-----4-------------------------------|
|----------------------2-------------------------------|
    Maybe well catch up someday
____________________________________


Part C
Let it ring..
|---5---4---2--------7---4---2------|
|-----------------------------------|
|-----------------------------------|
|-----------------------------------|
|-----------------------------------|
|---5---4---2--------7---4---2------|
____________________________________
            
Submit corrections

↑ Back to top | Tablatures and chords for acoustic guitar and electric guitar, ukulele, drums are parodies/interpretations of the original songs. You may use it for private study, scholarship, research or language learning purposes only