» » »

Matchbox Twenty - Parade Bass

Artists:  A B C D E F G H I J K L M N O P Q R S T U V W X Y Z # 

Parade Bass

(ver. 2) Click to play this song!
Matchbox Twenty
 Rating:
4/5 (4 votes)

 Parade lessons Tabs too difficult? Try these video lessons and learn fast
 
                Verse 1 - bass comes in at around 0:44
G|------------------------------|
D|--2--2------------------------|
A|---------3--3-----------------| x2
E|----------------3--3---3--3---|

G|------------------------------|
D|--2--2------------------------|
A|---------3--3-----------------| x1
E|----------------3--3---2--2---|

G|------------------------------|
D|--2--2------------------------|
A|---------3--3-----------------| x1
E|----------------3--3---3--3---|

Pre-Chorus

G|------------------------------------------------------------------------------|
D|------------------------------------------------------------------------------|
A|--5-5-5-5-5-5-5-5-7-7-7-7-7-7-7-7--3-3-3-3-3-3-3-3-10-10-10-10-10-10-10-10-10-| x2
E|------------------------------------------------------------------------------|


Chorus

G|-------------------------------------------------------------------|
D|-------------------------------------------------------------------|
A|------------------3-3-3-3-3-3-3-3-----------------5-5-5-5-5-5-5-5--| x2 
E|--0-0-0-0-0-0-0-0-----------------3-3-3-3-3-3-3-3------------------|   

|--------------|  
|--------------|  
|-x33x33x33x33-|  
|--------------| 
 
Verse 2

Rest for 1 bar then:

G|------------------------------|
D|--2--2------------------------|
A|---------3--3-----------------| x2
E|----------------3--3---3--3---|

G|------------------------------|
D|--2--2------------------------|
A|---------3--3-----------------| x1
E|----------------3--3---2--2---|

G|------------------------------|
D|--2--2------------------------|
A|---------3--3-----------------| x1
E|----------------3--3---r--r---|

G|------------------------------------------------------------------------------|
D|------------------------------------------------------------------------------|
A|--5-5-5-5-5-5-5-5-7-7-7-7-7-7-7-7--3-3-3-3-3-3-3-3-10-10-10-10-10-10-10-10-10-| x2
E|------------------------------------------------------------------------------|

Chorus 2

G|-------------------------------------------------------------------|
D|-------------------------------------------------------------------|
A|------------------3-3-3-3-3-3-3-3-----------------5-5-5-5-5-5-5-5--| x2 
E|--0-0-0-0-0-0-0-0-----------------3-3-3-3-3-3-3-3------------------|   

|--------------------------------------------------------|  
|--------------------------------------------------------|  
|-x33x33x33x33--x33x33x33x33-15-15-15-15-15-15-15-15-----|  
|--------------------------------------------------------|    

Bridge

G|-------------------------------------------------------------------|
D|-------------------------------------------------------------------|
A|------------------3-3-3-3-3-3-3-3-----------------5-5-5-5-5-5-5-5--| x2 
E|--0-0-0-0-0-0-0-0-----------------3-3-3-3-3-3-3-3------------------|   

Chorus/Outro

G|-------------------------------------------------------------------|
D|-------------------------------------------------------------------|
A|------------------3-3-3-3-3-3-3-3-----------------5-5-5-5-5-5-5-5--| x4
E|--0-0-0-0-0-0-0-0-----------------3-3-3-3-3-3-3-3------------------|   
 
|-------|
|-------|   
|-------|
|-x0x0x-|  

Intro - just guitar
Verse 1
Pre-Chorus x2
Chorus
Verse 2
Pre-Chorus x2
Chorus 2
Bridge
Chorus/Outro            
Submit corrections


        Parade lessons Hard to play? Try these video lessons and learn fast Parade lessons
        
↑ Back to top | Tablatures and chords for acoustic guitar and electric guitar, ukulele, drums are parodies/interpretations of the original songs. You may use it for private study, scholarship, research or language learning purposes only