» » »

Matchbox Twenty - Parade Bass

Artists:  A B C D E F G H I J K L M N O P Q R S T U V W X Y Z # 

Parade Bass

(ver. 1) Click to play this song!
Matchbox Twenty
 Rating:
4/5 (4 votes)

 Parade lessons Tabs too difficult? Try these video lessons and learn fast
 
                -----------------------------------------------------------------------------
                             Parade - Matchbox 20
-----------------------------------------------------------------------------


Tuning: Standard

Verse 1 - bass comes in at around 0:44

G|------------------------------|
D|--2--2------------------------|
A|---------3--3-----------------| x4
E|----------------3--3---3--3---|

Pre-Chorus

G|------------------------------------------|
D|------------------------------------------|
A|--5-5-5-5-5-5-5-5-------------------------|
E|------------------11-11-11-11-11-11-11-11-|

G|------------------------------------------|
D|------------------------------------------|
A|--3-3-3-3-3-3-3-3-10-10-10-10-10-10-10-10-|
E|------------------------------------------|

Chorus

G|-------------------------------------------------------------------|    |-----------|
D|-------------------------------------------------------------------|    |-----------|
A|--6-6-6-6-6-6-6-6-3-3-3-3-3-3-3-3-----------------5-5-5-5-5-5-5-5--| x2 |-x5x5x5x5~-|
E|----------------------------------3-3-3-3-3-3-3-3------------------|    |-----------|

Verse 2

Rest for 1 bar then:

G|------------------------------|
D|--2--2------------------------|
A|---------3--3-----------------| x4
E|----------------3--3---3--3---|

Chorus 2

G|-------------------------------------------------------------------|   
D|-------------------------------------------------------------------|    
A|--6-6-6-6-6-6-6-6-3-3-3-3-3-3-3-3-----------------5-5-5-5-5-5-5-5--| x2
E|----------------------------------3-3-3-3-3-3-3-3------------------|    

G|--------------------------------|
D|--------------------------------|
A|--x5x5x5x5~---x5x5x5x5~---x5x5x-|
E|--------------------------------|

Bridge

G|-------------------------------------------------------------------|   
D|-------------------------------------------------------------------|    
A|--6-6-6-6-6-6-6-6-3-3-3-3-3-3-3-3-----------------5-5-5-5-5-5-5-5--| x2
E|----------------------------------3-3-3-3-3-3-3-3------------------|    

Chorus/Outro

G|-------------------------------------------------------------------|    |-------|
D|-------------------------------------------------------------------|    |-------|   
A|--6-6-6-6-6-6-6-6-3-3-3-3-3-3-3-3-----------------5-5-5-5-5-5-5-5--| x4 |-x5x5x-|
E|----------------------------------3-3-3-3-3-3-3-3------------------|    |-------|  
 


Intro - just guitar
Verse 1
Pre-Chorus x2
Chorus
Verse 2
Pre-Chorus x2
Chorus 2
Bridge
Chorus/Outro



| /  slide up
| \  slide down
| h  hammer-on
| p  pull-off
| ~  vibrato
| +  harmonic
| x  Mute note
=============================================================================
            
Submit corrections


        Parade lessons Hard to play? Try these video lessons and learn fast Parade lessons
        
↑ Back to top | Tablatures and chords for acoustic guitar and electric guitar, ukulele, drums are parodies/interpretations of the original songs. You may use it for private study, scholarship, research or language learning purposes only