» » »

Matchbox Twenty - If Youre Gone Tabs

Artists:  A B C D E F G H I J K L M N O P Q R S T U V W X Y Z # 

If Youre Gone Tabs

(ver. 3) Click to play this song!
Matchbox Twenty
 Rating:
4/5 (4 votes)

 If Youre Gone lessons Tabs too difficult? Try these video lessons and learn fast
 
                Intro: 

E|---------------7---------|---------?------7-----------------------------|
B|--------10--------10-----|-------?-10--------10--------9--10-----9--10--|
G|-----9------9---------9--|-----9-?-----9---------9--9---------9---------|
D|-------------------------|---------?------------------------------------|
A|--0----------------------|--9----?--------------------------------------|
E|-------------------------|---------?------------------------------------|


E|---------------7------------------------------|---------?------7---------|
B|--------10--------10--------9--10-----9--10---|-------?-10--------10-----|
G|-----9------9---------9--9---------9----------|---?--9------9---------9--|
D|----------------------------------------------|-------------------------|
A|--0-------------------------------------------|--9----?------------------|
E|----------------------------------------------|-----?--------------------|

E|---------------7---------|---------------7---------
B|--------10--------10-----|--------10--------10-----
G|-----9------9---------9--|-----9------9---------9--
D|-------------------------|-------------------------
A|--0----------------------|--9----------------------
E|-------------------------|-------------------------

Verse:

...I think I'm finally scared now...

E|--------------------------------------------------2--0--|
B|--------2-----------------------3-----------------3--0--|
G|-----2-----2--------2--------2-----2--------2-----2--4--|
D|--2--------------2-----2--0--------------2-----2--4--2--|
A|--------------4-----------------------4-----------2--2--|
E|-----------------------------------------------------0--|
-
...Already leaving...

E|-----------------------------------------------------------|
B|-----------2--------------3--------------2-----------2-----|
G|--------2-----2--------2-----2--------2-----2-----2-----2--|
D|-----2-----------2--0-----------0--4-----------2-----------|
A|--0--------------------------------------------------------|
E|-----------------------------------------------------------|

...Door...

E|-----------------------------------------------------------------2--0--|
B|--------3--------------------------------------3-----------------3--0--|
G|-----2-----2-----------2-----------2--------2-----2--------2-----4--1--|
D|--0-----------0-----2-----2-----2-----2--0--------------2-----2--4--2--|
A|-----------------0-----------4-----------------------4-----------2--2--|
E|--------------------------------------------------------------------0--|

Pre-chorus:

...So mean...             ...Try...

E|-------5-------5-------|-------5?-------5-------|
B|--2h3-----2h3-----2h3--|--2h3-----2h3-----2h3--|
G|-----------------------|----------?-------------|
D|-----------------------|--2-------2--------2---|
A|--2-------2-------2----|----------?-------------|
E|-----------------------|----------?-------------|

...I can need...          ...This in my life...

E|-------5-------5-------|-------5?-------5-------|
B|--2h3-----2h3-----2h3--|--2h3---?--2h3-----2h3--|
G|-----------------------|--------?---------------|
D|-----------------------|--0-------?0-------0----|
A|--0-------0-------0----|----------?-------------|
E|-----------------------|----------?-------------|

...Scared...              ...Too much...

E|-------5-------5-------|-------5--?4--|
B|--2h3-----2h3-----2h3--|--2h3-----?---|
G|-----------------------|----------?---|
D|-----------------------|--2----------|
A|--2-------2-------2----|-------------|
E|-----------------------|-------------|

...I know it's wrong... (Palm Muted)

G5 power chord until chorus

Chorus: (2x)

...If you're gone...

While Strumming A,

E|-----------|
B|-----------|
G|-----------|
D|-----------|
A|--2--4--0--|
E|-----------|

...Baby it's time to come home...

While Strumming Dsus2,

E|-----------------|
B|-----------------|
G|-----------------|
D|-----------------|
A|--2--0--4--2--0--|
E|-----------------|

...There's a...

B5-C#5-D5-E-A

...And everything in you...

E|---------------7---------|-------?--------7---------|
B|--------10--------10-----|-------?-10--------10-----|
G|-----9------9---------9--|-----9-?-----9---------9--|
D|-------------------------|-------?------------------|
A|--0----------------------|--9----?------------------|
E|-------------------------|---------?----------------|

Verse 2:

...I bet you're hard to get over...

E|-----------------------------------------------------------|
B|-----------2--------------3--------------2-----------2-----|
G|--------2-----2--------2-----2--------2-----2-----2-----2--|
D|-----2-----------2--0-----------0--4-----------2-----------|
A|--0--------------------------------------------------------|
E|-----------------------------------------------------------|

...I bet the room just won't shine...

E|-----------------------------------------------------------------2--0--|
B|--------3--------------2-----------------------3-----------------3--0--|
G|-----2-----2--------2-----2--------2--------2-----2--------2-----4--1--|
D|--0-----------0--2--------------2-----2--0--------------2-----2--4--2--|
A|-----------------------------4-----------------------4-----------2--2--|
E|--------------------------------------------------------------------0--|

Repeat Pre-Chorus and Chorus.

After the B5-C#5-D5-E, progression play the interlude.

Interlude:

B5-E-A 

E|-----------------------------|
B|-----------------------------|
G|--0--2--7--------6--------4--|
D|--0--2--7--------6--------4--|
A|--0--2--5--7--5--4--5--4--2--|
E|-----------------------------|

B5-E-A

Repeat Pre-Chorus and Chorus.

Outro: 

Play for 3 bars.

...And everything in you...

E|--------------7-----------|---------?------7---------|
B|-------10-----------10----|-------?-10-----------10--|
G|----9------9-----9--------|-----9-?-----9-----9------|
D|--------------------------|-------?------------------|
A|--------------------------|-----?--------------------|
E|-7------------------------|--0----?------------------|

(Last bar)

...In you...
E|--5---------|
B|--5---------|
G|--6---------|
D|--7---------|
A|------------|
E|------------|

            
Submit corrections


        If Youre Gone lessons Hard to play? Try these video lessons and learn fast If Youre Gone lessons
        
↑ Back to top | Tablatures and chords for acoustic guitar and electric guitar, ukulele, drums are parodies/interpretations of the original songs. You may use it for private study, scholarship, research or language learning purposes only