Home » M » Matchbox Twenty »

Matchbox Twenty - If Youre Gone Bass

Artists:  A B C D E F G H I J K L M N O P Q R S T U V W X Y Z # 

If Youre Gone Bass

(ver. 2) Click to play this song!
Matchbox Twenty
 Rating:
4/5 (4 votes)
                
this is one of my favorite songs of matchb0x20.. no one ever tried of transcribing it,
that's why i tabbed it.. just listen to the song ver well so that u wud know the right
timing... gotit.


Intro:

            s                         s        
G|---------------------------------------------------------|
D|---------------------------------------------------------|
A|------5--5/9---7---5-----------5---5/9-----7----5--------|
E|---5-----------------------5-----------------------------|


Verse1:
            s                                      h s 
G|-------------------------------------------------------------|
D|-------------------------------------------------------------|
A|------5--5/9----7---5--------4-5---4---2---0-----------------|
E|---5-----------------------5-------------------0/2/5---------|

            s                               s 
G|-----------------------------------------------------------|
D|-----------------------------------------------------------|
A|------5--5/9----7---5--------4-5---4---2-/-7-----77--------|
E|---5-----------------------5-------------------------------|

refrain:
     
      h  s
G|----------------------------------------------------------------|
D|----------------------------------------------------------------|
A|----------------------------------------------------------------|
E|---0/2/7---7-7-5-0----0-2-4-5---77--7-9-10---9-10-7--5-9-7------|

           r~~~~
G|--------------------------|
D|--------------------------|
A|--------------------------|
E|---5-----0-------3-33333--|

chorus:

G|------------------------------------------------------------------------|
D|------------------------------------------------------------------------|
A|------------------------0-222-24--44-00-002244000---00000000000000------|
E|------5555555555555555----------------------------------------------535-|

if ur gone..........come home.................hardly move

G|------------------------------------------------------------------------|
D|------------------------------------------------------------------------|
A|------------------------0-222-24--44-00-002244000---00000000000000------|
E|------5555555555555555----------------------------------------------535-|

if ur gone..........come home.................hardly move

G|------------------------------------------------------------------------|
D|------------------------------------------------------------------------|
A|-------222--44445----77777777777----------------------------------------|
E|-----------------------------------55555555-----------------------------|

.......................and i cant hardly move


interlude:

            s        r~~~               
G|--------------------------------|
D|--------------------------------|
A|------5--5/9---7---5------------|
E|---5----------------------------|

verse2:

            s                                      h s 
G|-------------------------------------------------------------|
D|-------------------------------------------------------------|
A|------5--5/9----7---5--------4-5---4---2---20----------------|
E|---5-----------------------5-------------------0/2/5---------|

            s                               s 
G|-------------------------------------------------------------|
D|-------------------------------------------------------------|
A|------5--5/9----7---5--------4-5---4---2-/-7-----77----------|
E|---5-----------------------5---------------------------------|


refrain:
     
      h  s
G|----------------------------------------------------------------|
D|----------------------------------------------------------------|
A|----------------------------------------------------------------|
E|---0/2/7---7-7-5-0----0-2-4-5---77--7-9-10---9-10-7--5-9-7---77-|

           r~~~~
G|--------------------------|
D|--------------------------|
A|--------------------------|
E|---5-----0-------3-33333--|

*repeat chorus*

adlib:

G|---------------------------------------------------------------------|
D|---------------------------------------------------------------------|
A|-----------777777-------------------------------------777777---------|
E|---777777---------555555--7-9-10--10-9-7--5-9-777777---------555555--|

refrain:

      h  s
G|----------------------------------------------------------------|
D|----------------------------------------------------------------|
A|----------------------------------------------------------------|
E|---0/2/7---7-7-5-0----0-2-4-5---77--7-9-10---9-10-7--5-9-7---77-|

           r~~~~
G|--------------------------|
D|--------------------------|
A|--------------------------|
E|---5-----0-------3-33333--|


*repeat chorus*

     s             r~~~~       s          h   s
G|------------------------------------------------------------|
D|------------------------------------------------------------|
A|-----------------7------------------------------------------|
E|-7-/-12--12----7-----------7-/-12------0/2-/-5--------------|

everythin in..(somethin'..)..evrytn in...in you.

*please dont copy and post this tab as yours. have some respect*

*wag nio pong kopyahin tpos i-post it0ng tab n i2 n kunwari kyo ang gumawa*


iluvUmichelle.
*mmmmmmmwaaah*
miss u alwayz... =)
monday alwyz OT...
            
Submit corrections

↑ Back to top | Tablatures and chords for acoustic guitar and electric guitar, ukulele, drums are parodies/interpretations of the original songs. You may use it for private study, scholarship, research or language learning purposes only