» » »

Matchbox Twenty - How Far We've Come Bass

Artists:  A B C D E F G H I J K L M N O P Q R S T U V W X Y Z # 

How Far We've Come Bass

(ver. 2) Click to play this song!
Matchbox Twenty
 Rating:
4/5 (4 votes)

 How Far We've Come lessons Tabs too difficult? Try these video lessons and learn fast
 
                "The bridge is probably not completely accurate, but it sounds ok :-)

Intro:

G|-------------------------------------------------------------|
D|-------------------------------------------------------------|
A|-------------------------------------------------------------|
E|-3/8888888888888888/15151515151515151515151515151515---------|

G|-------------------------------------------------------------|
D|-------------------------------------------------------------|
A|-------------------------------------------------------------|
E|-5555555555555555/13131313131313131313131313131313-----------|

1st Verse:

G|-------------------------------------------------------------|
D|-------------------------------------------------------------|
A|-------------------------------------------------------------|
E|-3/8888888888888888/15151515151515151515151515151515---------|

G|-------------------------------------------------------------|
D|-------------------------------------------------------------|
A|-------------------------------------------------------------|
E|-55555555555555551111111111111111----------------------------|

X 2

1st Chorus:

G|-------------------------------------------------------------|
D|-------------------------------------------------------------|
A|-------------------------------------------------------------|
E|-55555555555555551111111111111111----------------------------|

G|-------------------------------------------------------------|
D|-------------------------------------------------------------|
A|-------------------------------------------------------------|
E|-/8888888888888888/15151515151515151515151515151515----------|

X 2

2nd Verse:

G|-------------------------------------------------------------|
D|-------------------------------------------------------------|
A|-------------------------------------------------------------|
E|-8888888888888888/15151515151515151515151515151515-----------|

G|-------------------------------------------------------------|
D|-------------------------------------------------------------|
A|-----------------8888888888888888----------------------------|
E|-5555555555555555--------------------------------------------|

G|-------------------------------------------------------------|
D|-------------------------------------------------------------|
A|-------------------------------------------------------------|
E|-88888888888888883333333333333035----------------------------|

G|-------------------------------------------------------------|
D|-------------------------------------------------------------|
A|-------------------------------------------------------------|
E|-55555555555555551111111111111111----------------------------|

2nd Chorus:

G|-------------------------------------------------------------|
D|-------------------------------------------------------------|
A|-------------------------------------------------------------|
E|-5555555555555555/13131313131313131313131313131313-----------|

G|-------------------------------------------------------------|
D|-------------------------------------------------------------|
A|-------------------------------------------------------------|
E|-8888888888888888/15151515151515151515151515151515-----------|

X 2


Bridge part 1:

G|-------------------------------------------------------------|
D|----------------------------------------3--------------------|
A|------2--3----------------------2--3-------------------------|
E|-5------------1------0----3-5----------------0----3----------|

G|-------------------------------------------------------------|
D|----------------233333332222222------------------------------|
A|--------23333333---------------------------------------------|
E|-5555555-----------------------3-----------------------------|

G|-------------------------------------------------------------|
D|-------------------------------------------------------------|
A|--------23333333---------------------------------------------| X 2
E|-5555555--------0111111100000003-----------------------------|

G|-------------------------------------------------------------|
D|-------------------------------------------------------------|
A|--------23333333----------------777777-----------------------|
E|-5555555--------0111111100000000------7/12-------------------|

Repeat 1st Chorus

G|-------------------------------------------------------------|
D|-------------------------------------------------------------|
A|-------------------------------------------------------------|
E|-/8888888888888888/15151515151515151515151515151515----------|

G|-------------------------------------------------------------|
D|-------------------------------------------------------------|
A|-------------------------------------------------------------|
E|-5555555555555555/13131313131313131313131313131313-----------|

G|-------------------------------------------------------------|
D|-------------------------------------------------------------|
A|-------------------------------------------------------------|
E|-8888888888888888/15151515151515151515151515151515-----------|

G|-------------------------------------------------------------|
D|-------------------------------------------------------------|
A|-------------------------000022223---------------------------|
E|-555555555555555511113333------------------------------------|
"            
Submit corrections


        How Far We've Come lessons Hard to play? Try these video lessons and learn fast How Far We've Come lessons
        
↑ Back to top | Tablatures and chords for acoustic guitar and electric guitar, ukulele, drums are parodies/interpretations of the original songs. You may use it for private study, scholarship, research or language learning purposes only