» » »

Matchbox Twenty - How Far We've Come Bass

Artists:  A B C D E F G H I J K L M N O P Q R S T U V W X Y Z # 

How Far We've Come Bass

(ver. 1) Click to play this song!
Matchbox Twenty
 Rating:
4/5 (4 votes)

 How Far We've Come lessons Tabs too difficult? Try these video lessons and learn fast
 
                "----------------------------------------------------------------------
                 HOW FAR WE'VE COME - Matchbox Twenty
----------------------------------------------------------------------


The first song off their new EP, Exile in Mainstream. Nice simple song
to play, just thought I'd tab it out for anyone who might have a bit
of trouble figuring out the bridge. Anyways, enjoy and please rate. =)

Rest one measure

Intro

G|----------------|----------------|----------------|----------------|
D|----------------|5555555555555555|----------------|3333333333333333|
A|3333333333333333|----------------|0000000000000000|----------------|
E|----------------|----------------|----------------|----------------|

Verse X 2

G|----------------|----------------|----------------|----------------|
D|----------------|5555555555555555|----------------|3333333333333333|
A|3333333333333333|----------------|0000000000000000|----------------|
E|----------------|----------------|----------------|----------------|

Chorus X 2

G|----------------|----------------|----------------|----------------|
D|----------------|3333333333333333|----------------|5555555555555555|
A|0000000000000000|----------------|3333333333333333|----------------|
E|----------------|----------------|----------------|----------------|

Verse X 2

Chorus X 2

Bridge

G|----------------|----------------|----------------|----------------|
D|----------------|----------------|----------------|3~--------------|
A|0~----2-3~------|----------------|0~----2-3~------|----------------|
E|----------------|1~------0~----3-|----------------|----------------|

G|----------------|----------------|----------------|----------------|
D|------------0-2-|3~------2--0----|----------------|----------------|
A|0~----2-3~------|-------------32-|0000002233333333|----------------|
E|----------------|----------------|----------------|1111111100000000|
                                    ................ ................
G|----------------|----------------|----------------|----------------|
D|----------------|----------------|----------------|----------------|
A|0000002233333333|----------------|0000002233333333|----------------|
E|----------------|1111111100000000|----------------|1111111100000000|

G|----------------|
D|----------------|
A|2222222/7-------|
E|----------------|
          .
Chorus X 2

Outro

G|----------------|----------------|----------------|----------------|
D|----------------|5555555555555555|----------------|3333333333333333|
A|3333333333333333|----------------|0000000000000000|----------------|
E|----------------|----------------|----------------|----------------|

G|----------------|----------------|----------------|----------------|
D|----------------|----------------|----------------|----------------|
A|3333333333333333|----------------|0000000000000000|--------00002222|
E|----------------|3333333333333333|----------------|11113333--------|

G|----------------|
D|----------------|
A|3~--------------|
E|----------------|


| /  slide up
| \  slide down
| h  hammer-on
| p  pull-off
| ~  hold note
| +  harmonic
| x  mute note
| .  staccato note
======================================================================
"            
Submit corrections


        How Far We've Come lessons Hard to play? Try these video lessons and learn fast How Far We've Come lessons
        
↑ Back to top | Tablatures and chords for acoustic guitar and electric guitar, ukulele, drums are parodies/interpretations of the original songs. You may use it for private study, scholarship, research or language learning purposes only