Home » M » Maryzark »

Maryzark - M3 Tabs

Artists:  A B C D E F G H I J K L M N O P Q R S T U V W X Y Z # 

M3 Tabs

(ver. 1) Click to play this song!
Maryzark
By-Francis
Location - Carmelite, Lucena City
Cp #- 09109712432
School- Sacred Heart College


Tuning 
e
b
g
D
A
E

Intro-
Guitar 1
|----------------------------------|
|-----8-7--8-7--8-7--8---9---------|
|---7----7----7----7---7---7-------|
|----------------------------------|
|----------------------------------|
|----------------------------------|

                          PM  PM  PM PM PM PM
|-------------------------------------------------|
|-------------------------------------------------|
|-7777777-4444444---------------------------------|
|-7777777-4444444-4444444-55-5-5555-55-5-5555-----|
|-5555555-2222222-4444444-55-5-5555-55-5-5555-----|
|-----------------2222222-33-3-3333-33-3-3333-----|

                           PM  PM  PM PM PM PM   
|---------------------------------------------------|
|---------------------------------------------------|
|-7777777-44444/6/7---------------------------------|
|-7777777-44444/x/x-4444444-55-5-5555-55-5-5555-----|
|-5555555-22222/4/5-4444444-55-5-5555-55-5-5555-----|
|-------------------2222222-33-3-3333-33-3-3333-----|


VERSE-
  PM  PM  PM PM PM PM  PM  PM  PM PM PM PM  PM  PM  PM PM PM PM
|-----------------------------------------------------------------------|
|-----------------------------------------------------------------------|
|-777777777777777-444444444444444---------------------------------------|
|-777777777777777-444444444444444-44444444444444-5555555555555555-------|2X
|-555555555555555-222222222222222-44444444444444-5555555555555555-------|
|---------------------------------22222222222222-3333333333333333-------|

CHORUS-

                    PM  PM  PM PM PM PM
|-------------------------------------------------|
|-------------------------------------------------|
|-7777777-4444444---------------------------------|
|-7777777-4444444-4444444-55-5-5555-55-5-5555-----|
|-5555555-2222222-4444444-55-5-5555-55-5-5555-----|
|-----------------2222222-33-3-3333-33-3-3333-----|

                           PM  PM  PM PM PM PM   
|---------------------------------------------------|
|---------------------------------------------------|
|-7777777-44444/6/7---------------------------------|
|-7777777-44444/x/x-4444444-55-5-5555-55-5-5555-----|
|-5555555-22222/4/5-4444444-55-5-5555-55-5-5555-----|
|-------------------2222222-33-3-3333-33-3-3333-----|


VERSE-


 PM   PM  PM  PM   PM   PM     PM  PM  PM PM PM PM
|---------------|-------------|-------------|---------------|  
|---------------|-------------|-------------|---------------|   
|-77-7-77-7-7---|44-4--44-4-4-|-------------|---------------| 
|-77-7-77-7-7---|44-4--44-4-4-|44-4--44-4-4-|-55-5--55-5-5--|2X 
|-55-5-55-5-5---|22-2--22-2-2-|44-4--44-4-4-|-55-5--55-5-5--|  
|---------------|-------------|22-2--22-2-2-|-33-3--33-3-3--|   

CHORUS-

                    PM  PM  PM PM PM PM
|-------------------------------------------------|
|-------------------------------------------------|
|-7777777-4444444---------------------------------|
|-7777777-4444444-4444444-55-5-5555-55-5-5555-----|
|-5555555-2222222-4444444-55-5-5555-55-5-5555-----|
|-----------------2222222-33-3-3333-33-3-3333-----|

                                                 PM PM PM   
|------------------------------------------------------------|
|------------------------------------------------------------|
|-7777777-44444/6/7------------------------------------------|
|-7777777-44444/x/x-4444444-55555-----2~-4~-5~-7~77777777----|
|-5555555-22222/4/5-4444444-55555-----2~-4~-5~-7~77777777----|
|-------------------2222222-33333-----0~-2~-3~-5~55555555----|

interlude
                                                   PM PM
|------------------------------------------|  |-----------------------|
|------------------------------------------|  |-----------------------|
|---7---7-6---6--6-7---7---7-6---6--6-7----|  |----77777--------777~--|
|------------------------------------------|7X|----77777--------777~--|
|-5---5-----5---5-----5---5----5---5-------|  |----55555--------555~--|
|------------------------------------------|  |-----------------------|


CHORUS-

                          PM  PM  PM PM PM PM
|-------------------------------------------------|
|-------------------------------------------------|
|-7777777-4444444---------------------------------|
|-7777777-4444444-4444444-55-5-5555-55-5-5555-----|
|-5555555-2222222-4444444-55-5-5555-55-5-5555-----|
|-----------------2222222-33-3-3333-33-3-3333-----|

                                                 PM PM PM   
|------------------------------------------------------------|
|------------------------------------------------------------|
|-7777777-44444/6/7------------------------------------------|
|-7777777-44444/x/x-4444444-55555-----2~-4~-5~-7~77777777----|
|-5555555-22222/4/5-4444444-55555-----2~-4~-5~-7~77777777----|
|-------------------2222222-33333-----0~-2~-3~-5~55555555----|

BRIDGE-

|-------------------------------------|
|-------------------------------------|
|-7777777-4444444---------------------|
|-7777777-4444444-4444444-5555555-----|2X
|-5555555-2222222-4444444-5555555-----|
|-----------------2222222-3333333-----|

G2
|---------------------------------------------------------------------------|
|---------------------------------------------------------------------------|
|777777776666999997777777766666699999977777766666999999977777799999999777777|
|XXXXXXXXXXXXXXXXXXXXXXXXXXXXXXXXXXXXXXXXXXXXXXXXXXXXXXXXXXXXXXXXXXXXXXXXXXX|
|555555554444777775555555544444477777755555544444777777755555577777777555555|
|---------------------------------------------------------------------------|

2nd time
|----------------------------------|
|----8-7--8-7--8-7--8---8-7--------|
|-------7----7----7---7----7-------|
|----------------------------------|
|----------------------------------|
|----------------------------------|


 PM   PM  PM  PM   PM   PM     PM  PM  PM PM PM PM
|---------------|-------------|-------------|---------------|   |---------|
|---------------|-------------|-------------|---------------|   |---------|
|-77-7-77-7-7---|44-4--44-4-4-|-------------|---------------|   |------7~-|
|-77-7-77-7-7---|44-4--44-4-4-|44-4--44-4-4-|-55-5--55-5-5--|2X |-5-7--7~-|
|-55-5-55-5-5---|22-2--22-2-2-|44-4--44-4-4-|-55-5--55-5-5--|   |-5-7--5~-|
|---------------|-------------|22-2--22-2-2-|-33-3--33-3-3--|   |-3-5-----|
            
Submit corrections

↑ Back to top | Tablatures and chords for acoustic guitar and electric guitar, ukulele, drums are parodies/interpretations of the original songs. You may use it for private study, scholarship, research or language learning purposes only