Home » M » Marvin Gaye »

Marvin Gaye - I Heard It Through The Grapevine Tabs

Artists:  A B C D E F G H I J K L M N O P Q R S T U V W X Y Z # 

I Heard It Through The Grapevine Tabs

(ver. 2) Click to play this song!
Marvin Gaye
 Intro
  Q=115
  Eb5    Gb5  Eb5           Gb5F5  Eb5         Gb5  Eb5           Gb5F5  Eb5
 4/4
  Gtrs I, III (El. Gtr. & Organ)
  Q.   E  E E Q    +Q   E E  E  Q  E   +Q.   E  E E Q    +Q   E E  E  Q  E
|----------------|-------------------|-----------------|--------------------|
|----------------|-------------------|-----------------|--------------------|
|----------------|-------------------|-----------------|--------------------|
|-8----8-11---8--|-(8)--8-8-11-10--8-|-(8)---8-11---8--|-(8)--8-8-11-10--8--|
|-6----6--9---6--|-(6)--6-6--9--8--6-|-(6)---6--9---6--|-(6)--6-6--9--8--6--|
|----------------|-------------------|-----------------|--------------------|


          Gb5  Eb5           Gb5F5   Ebm
                                     Gtr
   W                 W
|-----------------|---------------------|
|-----------------|---------------------|
|-----------------|---------------------|
|-----------------|---------------------|
|-----------------|---------------------|
|-----------------|---------------------|
|
| Gtrs I, III                        Gtr
| +Q.   E  E E Q    +Q   E E  E  Q    E
|-----------------|------------------11-|
|-----------------|------------------11-|
|-----------------|------------------11-|
|-(8)---8-11---8--|-(8)--8-8-11-10------|
|-(6)---6--9---6--|-(6)--6-6--9--8------|
|-----------------|---------------------|
|
| Gtr II (El. Gtr.)
|  W                 H        Q    E  E
|-----------------|-------------------6-|
|-----------------|-------------------7-|
|-----------------|-------------------8-|
|-----------------|---------------------|
|-----------------|---------------------|
|-----------------|---------------------|


              Ab/C Ebm                Ab/C  Ebm
 I
    Q    e  E  Q    e E     Q    e  E  Q     e  E
|-------11---------11---|-------11----------11----|
|-------11---------11---|-------11----------11----|
|-------11---------11---|-------11----------11----|
|-----------------------|-------------------------|
|-----------------------|-------------------------|
|-----------------------|-------------------------|
|
|III
|  +Q.      E  E E  Q      +Q    E  E  E  Q     E
|-(11)-----11-11---11---|-(11)--11-11-11-11----11-|
|-(11)-----11-13---11---|-(11)--11-11-13-13----11-|
|-(11)-----11-13---11---|-(11)--11-11-13-13----11-|
|-----------------------|-------------------------|
|-----------------------|-------------------------|
|-----------------------|-------------------------|
|
|  +Q    Q     E E  Q      +Q    E  E  E  Q     E
|--(6)--------------6---|--(6)---6--------------6-|
|--(7)---------9----7---|--(7)---7--7--9--9-----7-|
|--(8)---------8----8---|--(8)---8--8--8--8-----8-|
|-------------10--------|-------------10-10-------|
|-----------------------|-------------------------|
|-----------------------|-------------------------|


                                                $
              Ab/C Ebm                Ab/C   Ebm
    Q    e  E  Q    e E     W
|-------11---------11---|-----------------------|
|-------11---------11---|-----------------------|
|-------11---------11---|-----------------------|
|-----------------------|-----------------------|
|-----------------------|-----------------------|
|-----------------------|-----------------------|
|
|  +Q.      E  E E  Q      +Q    E  E  E  Q   E
|-(11)-----11-11---11---|-(11)--11-11-11-11--11-|
|-(11)-----11-13---11---|-(11)--11-11-13-13--11-|
|-(11)-----11-13---11---|-(11)--11-11-13-13--11-|
|-----------------------|-----------------------|
|-----------------------|-----------------------|
|-----------------------|-----------------------|
|
|  +Q    Q     E E  Q      +Q    E  E  E  Q   E
|--(6)--------------6---|--(6)---6--------------|
|--(7)---------9----7---|--(7)---7--7--9--9-----|
|--(8)---------8----8---|--(8)---8--8--8--8-----|
|-------------10--------|-------------10-10-----|
|-----------------------|-----------------------|
|-----------------------|-----------------------|


   1st - 3rd Verses
          Ebm
      Q    e E Q   e E   Q   e E Q   e E
||--------11------11---|----11------11---|
||o-------11------11---|----11------11---|
||--------11------11---|----11------11---|
||---------------------|-----------------|
||o--------------------|-----------------|
||---------------------|-----------------|
|
|    +H        H         W
||--(11)---------------|-----------------|
||o-(11)---------------|-----------------|
||--(11)---------------|-----------------|
||---------------------|-----------------|
||o--------------------|-----------------|
||---------------------|-----------------|
|
|     W                  W
||---------------------|-----------------|
||o--------------------|-----------------|
||---------------------|-----------------|
||---------------------|-----------------|
||o--------------------|-----------------|
||---------------------|-----------------|


     Bb      Cm7b5                    Ebm
  Gtr I
  Q   e E Q  e E   Q  e E Q  e E   Q   e E Q   e E   Q   e E Q   e E
|----10------6---|----6------6---|----11------11---|----11------11---|
|----11------7---|----7------7---|----11------11---|----11------11---|
|----10------5---|----5------5---|----11------11---|----11------11---|
|----------------|---------------|-----------------|-----------------|
|----------------|---------------|-----------------|-----------------|
|----------------|---------------|-----------------|-----------------|


     Bb      Cm7b5                    Eb/Bb           Ab
  Q   e E Q  e E   Q  e E Q  e E   Q  e E Q  e E   Q  e E Q  e E
|----10------6---|----6------6---|----3------3---|----4------4---|
|----11------7---|----7------7---|----4------4---|----4------4---|
|----10------5---|----5------5---|----3------3---|----5------5---|
|----------------|---------------|---------------|---------------|
|----------------|---------------|---------------|---------------|
|----------------|---------------|---------------|---------------|


                                  Chorus
     Eb/Bb           Ab               Eb
  Q  e E Q  e E   Q  e E Q  e E    Q  e E Q  e E   Q  e E Q  e E
|----3------3---|----4------4---||----6------6---|----6------6---|
|----4------4---|----4------4---||----8------8---|----8------8---|
|----3------3---|----5------5---||----8------8---|----8------8---|
|---------------|---------------||---------------|---------------|
|---------------|---------------||---------------|---------------|
|---------------|---------------||---------------|---------------|


     Ab                              Eb
  Q  e E Q  e E   Q  e E Q  e E   Q  e E Q  e E   Q  e E Q  e E
|----4------4---|----4------4---|----6------6---|----6------6---|
|----4------4---|----4------4---|----8------8---|----8------8---|
|----5------5---|----5------5---|----8------8---|----8------8---|
|---------------|---------------|---------------|---------------|
|---------------|---------------|---------------|---------------|
|---------------|---------------|---------------|---------------|


                                                                 To Coda
     Ab           N.C.         Eb5          Gb5                Gb5F5  Eb5
  Q  e E Q  e E   Q  E E E E E E   +Q   Q    H         W
|----4------4---|----------------|------------------|---------------------|
|----4------4---|----------------|------------------|---------------------|
|----5------5---|----------------|------------------|---------------------|
|---------------|----6---4-6-----|------------------|---------------------|
|---------------|------6-------6-|-(6)--------------|---------------------|
|---------------|----------------|------------------|---------------------|
|
|                              Gtrs II, III
| W               H      Q   E E   +Q.    E  E E Q    +Q   E E  E  Q  E
|---------------|----------------|------------------|---------------------|
|---------------|----------------|------------------|---------------------|
|---------------|----------------|------------------|---------------------|
|---------------|--------------8-|-(8)----8-11---8--|-(8)--8-8-11-10--8---|
|---------------|--------------6-|-(6)----6--9---6--|-(6)--6-6--9--8--6---|
|---------------|----------------|------------------|---------------------|


                   1.
          Gb5  Eb5           Gb5F5  Ebm
   W                 W
|-----------------|---------------------||
|-----------------|--------------------o||
|-----------------|---------------------||
|-----------------|---------------------||
|-----------------|--------------------o||
|-----------------|---------------------||
|
| Gtrs II, III
| +Q.   E  E E Q    +Q   E E  E  Q   E
|-----------------|-----------------11--||
|-----------------|-----------------11-o||
|-----------------|-----------------11--||
|-(8)---8-11---8--|-(8)--8-8-11-10------||
|-(6)---6--9---6--|-(6)--6-6--9--8-----o||
|-----------------|---------------------||


                       Interlude
 2.
  Eb5      Gb5F5  Ebm         Ebm   Ab/C Ebm
   W                      Q    e  E  Q    e E
|--------------------||-------11---------11---|
|--------------------||-------11---------11---|
|--------------------||-------11---------11---|
|--------------------||-----------------------|
|--------------------||-----------------------|
|--------------------||-----------------------|
|
|                 Gtr III
|  Q   E E  E  Q   E     +Q.      E  E E  Q
|-----------------11-||-(11)--------11---11---|
|-----------------11-||-(11)--------13---11---|
|-----------------11-||-(11)-----11-13---11---|
|-(8)--8-8-11-10-----||-----------------------|
|-(6)--6-6--9--8-----||-----------------------|
|--------------------||-----------------------|


             Ab/C Ebm               Ab/C Ebm
    Q    e E  Q    e E    Q    e  E  Q    e E
|-------11--------11---|------11---------11---|
|-------11--------11---|------11---------11---|
|-------11--------11---|------11---------11---|
|----------------------|----------------------|
|----------------------|----------------------|
|----------------------|----------------------|
|
|  +H         E E  E E    Q.      E  E E  Q
|-(11)-------11---11---|-11---------11---11---|
|-(11)-------13---13---|-11---------13---11---|
|-(11)-------13---13---|-11------11-13---11---|
|----------------------|----------------------|
|----------------------|----------------------|
|----------------------|----------------------|


                           Outro
            D.S. al Coda &
                 (Ab)Ebm    Eb5     Gb5  Eb5
    Q    e  E  H             W
|-------11---------------||------------------|
|-------11---------------||------------------|
|-------11---------------||------------------|
|------------------------||------------------|
|------------------------||------------------|
|------------------------||------------------|
|
|                        Gtrs II, III
|  +Q    E  E  E  Q   E      Q.   E  E E Q
|-(11)---------------11--||------------------|
|-(11)---------------11--||------------------|
|-(11)--------11-13--11--||------------------|
|-------13-13------------||-(8)---8-11---8---|
|------------------------||-(6)---6--9---6---|
|------------------------||------------------|


           Gb5F5  Eb5         Gb5  Eb5           Gb5F5              Gb5  Eb5
  Gtrs II, III
  +Q   E E  E  Q  E   +Q.   E  E E Q    +Q   E E  E  Q  E   +Q.   E  E E Q
|-------------------|-----------------|-------------------|-----------------|
|-------------------|-----------------|-------------------|-----------------|
|-------------------|-----------------|-------------------|-----------------|
|-(8)--8-8-11-10--8-|-(8)---8-11---8--|-(8)--8-8-11-10--8-|-(8)---8-11---8--|
|-(6)--6-6--9--8--6-|-(6)---6--9---6--|-(6)--6-6--9--8--6-|-(6)---6--9---6--|
|-------------------|-----------------|-------------------|-----------------|


           Gb5F5  Eb5         Gb5  Eb5           Gb5F5  Eb5         Gb5  Eb5
  +Q   E E  E  Q  E   +Q.   E  E E Q    +Q   E E  E  Q  E   +Q.   E  E E Q
|-------------------|-----------------|-------------------|-----------------*|
|-------------------|-----------------|-------------------|-----------------*|
|-------------------|-----------------|-------------------|-----------------*|
|-(8)--8-8-11-10--8-|-(8)---8-11---8--|-(8)--8-8-11-10--8-|-(8)---8-11---8--*|
|-(6)--6-6--9--8--6-|-(6)---6--9---6--|-(6)--6-6--9--8--6-|-(6)---6--9---6--*|
|-------------------|-----------------|-------------------|-----------------*|
            
Submit corrections

↑ Back to top | Tablatures and chords for acoustic guitar and electric guitar, ukulele, drums are parodies/interpretations of the original songs. You may use it for private study, scholarship, research or language learning purposes only