Home » M » Marvin Gaye »

Marvin Gaye - Let's Get It On Tabs

Artists:  A B C D E F G H I J K L M N O P Q R S T U V W X Y Z # 

Let's Get It On Tabs
Version #1
Marvin Gaye


Copy URL

Tuning:Standard
Chords credit goes to CluMsy

Song is in the key of Cminor. You can improvise in Cminor Pent.

            WAH
e|-----------11--13B-13B-13B--11--------------11B---8------------------|
B|---11--13------------------------13-----8-------------11p8h11--------|
G|---------------------------------------------------------------------|
D|---------------------------------------------------------------------|
A|---------------------------------------------------------------------|
E|---------------------------------------------------------------------|

e|---------------------------------------------------------------------|
B|------------------------------------------------8B-------------------|
G|--8--10p8h10-----8----10BR-----8----------------8B-------------------|
D|--------------------------------------10---10---------10p8h10--------|
A|---------------------------------------------------------------------|
E|---------------------------------------------------------------------|

e|-------------------------------------------------------------------|
B|-------------------------------------------------------------------|
G|----------------------------------8----10----10B----8--------------|
D|----------------------10p8h10------------------------------10p8h10-|
A|-------10p8h10-----8-----------------------------------------------|
E|---8---------------------------------------------------------------|


Verse 1:

C          Am7    F       G7
 I've been really tryin', baby;
C         Am7             F             G7
 Tryin to hold back these feelings, for so long.
C           Am7   F      G7
 And if you feel, like I feel, baby;
C         Am7          F  G7
 Come on, oh, come on;

Chorus 1:

             C   Am7  F  G7
Let's get it on,
             C   Am7  F  G7
Let's get it on.
             C   Am7  F  G7
Let's get it on,
             C   Am7  F  G7
Let's get it on.

Verse 2:

C      Am7           F       G7
 We're all sensitive people,
C     Am7             F           G7
 With so much love to give; under-stand me, sugar.
C  Am7              F   G7
    Since we got to be,
C          Am7  F        G7
 Lets say;    I love you.

Verse 3:

C        Am7
 There's,
      F            G7         C    Am7
Nothin wrong, with me, lovin' you,
      F        G7
Baby, nah, nah.
    C                  Am7              F     G7
And givin' yourself to me, can never be wrong,
               C     Am7  F  G7
If the love is true.

Bridge 1:

F                                        C        Am7  F  G
 Don't you know, how sweet and wonderful life can be?
F                                      C    Am7  F  G
 I'm askin you baby, to get it on with me.
F                                  C     Am7
 I aint gonna worry, I ain't gonna push,
                F      G
(Don't push me, baby),
   F                                            G
So come on, come on, come on, come on, come on, baby;
                        G7
Stop beatin' 'round the bush.

Chorus 3:

             C   Am7  F  G7
Let's get it on,
             C   Am7  F  G7
Let's get it on.
             C   Am7  F  G7
Let's get it on,
             C   Am7  F  G7
Let's get it on.

(Repeat to Fade)
            
Submit corrections

↑ Back to top | Tablatures and chords for acoustic guitar and electric guitar, ukulele, drums are parodies/interpretations of the original songs. You may use it for private study, scholarship, research or language learning purposes only