» » »

Martin Garrix - There For You Tabs

Artists:  A B C D E F G H I J K L M N O P Q R S T U V W X Y Z # 

There For You Tabs

(ver. 2) Click to play this song!
Martin Garrix
 Rating:
4.3/5 (19 votes)

 There For You lessons Tabs too difficult? Try these video lessons and learn fast
 
                

[Intro]

e|----0--0---0-0--5\7-------0-0---0-0---5\7/5--|----0--0---0-0--5\7-------0-0---0-0---5\7/5--|
B|--3--3--0-3-3-----------3--3-0-3-3---------3-|--3--3--0-3-3-----------3--3-0-3-3---------3-|
G|--0---------------------0--------------------|--0---------------------0--------------------|
D|--2---------------------2--------------------|--2---------------------2--------------------|
A|--3---------------------3--------------------|--3---------------------3--------------------|
E|---------------------------------------------|---------------------------------------------|

[Verse]

I woke up p**sed off today...

e|------------------------------------------|-----------------------------------|
B|------------------------------------------|--0--0-0-----0-0---0--0-0-----0-0--|
G|--0-0-0-0-------0-0----0-0-0-0-------0-0--|--0-2-2-2-0--0-0---0-2-2-2-0--0-0--|
D|--2------2p0-0--0-0----2------2p0-0--0-0--|-----------------------------------|
A|--3-------------3-3----3-------------3-3--|--3----------3-3---3----------3-3--|
E|------------------------------------------|-----------------------------------|

[Chorus]

But I can't do this alone...

e|---------------------------|-----------------------------|
e|---------------------------|-----------------------------|
G|----0-0-0-0-4---0-0-0-0-4--|----0-0-0-0-4---4-2-4-2-4-2--|
D|---2-----------2-----------|---2-----------2-------------|
A|--3-----------3------------|--3-----------3--------------|
E|---------------------------|-----------------------------|

So when your tears roll...

e|---------------------------|------------------------------|
B|---------------------------|------------------------------|
G|-0-2-4-4-4-4-4-2-2-0-0h2p0-|-0-0-0h2p0---0--0-0-0h2p0---0-|
D|---------------------------|----------0h2------------0h2--|
A|---------------------------|------------------------------|
E|---------------------------|------------------------------|

e|-----------------------------------------|-------------------------------------|
B|-----------------------------------------|-------------------------------------|
G|-0-2-4-4-4-4-4-2-2-0-0h2p0-0-0-0h2p0---0-|-0-0-0h2p0---0-2-2-2-2-2-2-2-2\4-2-0-|
D|------------------------------------0h2--|----------0h2------------------------|
A|-----------------------------------------|-------------------------------------|
E|-----------------------------------------|-------------------------------------|

e|-----0--0---0-0--5\7-------0-0---0-0---5\7/5--|-----0--0---0-0--5\7-------0-0---0-0---5\7/5--|
B|---3--3--0-3-3-----------3--3-0-3-3---------3-|---3--3--0-3-3-----------3--3-0-3-3---------3-|
G|---0---------------------0--------------------|---0---------------------0--------------------|
D|---2---------------------2--------------------|---2---------------------2--------------------|
A|---3---------------------3--------------------|---3---------------------3--------------------|
E|----------------------------------------------|----------------------------------------------|

[Verse]

Last year took a toll on me...

e|-----------------------------------------|------------------------------------|
B|-----------------------------------------|--0--0-0-----0-0---0--0-0-----0-0---|
G|--0-0-0-0-------0-0---0-0-0-0-------0-0--|--0-2-2-2-0--0-0---0-2-2-2-0--0-0---|
D|--2------2p0-0--0-0---2------2p0-0--0-0--|------------------------------------|
A|--3-------------3-3---3-------------3-3--|--3----------3-3--------------3-3---|
E|-----------------------------------------|------------------------------------|

So when your tears roll...

e|-----------------------------|----------------------------|
B|-----------------------------|----------------------------|
G|-0-2-4-4-4-4-4-2-2-0-0h2p0-0-|-0-0h2p0---0--0-0-0h2p0---0-|
D|-----------------------------|--------0h2------------0h2--|
A|-----------------------------|----------------------------|
E|-----------------------------|----------------------------|

e|------------------------------------------------------------------------------|
B|------------------------------------------------------------------------------|
G|-0-2-4-4-4-4-4-2-2-0-0h2p0-0-0-0h2p0---0--0-0-0h2p0---0-2-2-2-2-2-2-2-2\4-2-0-|
D|------------------------------------0h2------------0h2------------------------|
A|------------------------------------------------------------------------------|
E|------------------------------------------------------------------------------|

I got you, I promise...

e|----------------------------------------|----------------------------------------|
B|----------------------------------------|----------------------------------------|
G|--0-0h2p0-0-0-0h2p0---0--0-0-0h2p0---0--|--0-0h2p0-0-0-0h2p0---0--0-0-0h2p0---0--|
D|-------------------0h2------------0h2---|-------------------0h2------------0h2---|
A|----------------------------------------|----------------------------------------|
E|----------------------------------------|----------------------------------------|

When your tears roll...

e|---------------------------------------------------------------------------------------------|
B|---------------------------------------------------------------------------------------------|
G|-0-2-4-4-4-4-4-2-2-0-0h2p0-0-0-0h2p0---0--0-0-0h2p0---0--------------------------------------|
D|------------------------------------0h2------------0h2------|
A|------------------------------------------------------------|
E|------------------------------------------------------------|

e|---------------------------------------------------------------------------------------------|
B|---------------------------------------------------------------------------------------------|
G|-0-2-4-4-4-4-4-2-2-0-0h2p0-0-0-0h2p0---0--0-0-0h2p0---0-2-2-2-2-2-2-2-2\4-2-0----------------|
D|------------------------------------0h2------------0h2---------------------------------------|
A|---------------------------------------------------------------------------------------------|
E|---------------------------------------------------------------------------------------------|

e|-----0--0---0-0--5\7-------0-0---0-0---5\7/5--|-----0--0---0-0--5\7-------0-0---0-0---5\7/5--|
B|---3--3--0-3-3-----------3--3-0-3-3---------3-|---3--3--0-3-3-----------3--3-0-3-3---------3-|
G|---0---------------------0--------------------|---0---------------------0--------------------|
D|---2---------------------2--------------------|---2---------------------2--------------------|
A|---3---------------------3--------------------|---3---------------------3--------------------|
E|----------------------------------------------|----------------------------------------------|

Boy, I'm holding on to something...

e|-------------------------------------------------------------|
B|--3-3-3-0-0----3---3-3-3-0-0---------------------------------|
G|------------2-2-------------2-2-0--0-0h2-0h2-0h2-0h2-2\4-0-0-|
D|------------------------------------------------------------2|
A|-------------------------------------------------------------|
E|-------------------------------------------------------------|

e|------------------------------------------------------------------|
B|--3-3-3-0-0----3---3-3-3-0-0--------------------------------------|
G|------------2-2-------------2-2-0--0-0h2-0h2-0h2-0h2-2\4-0-0------|
D|------------------------------------------------------------2-----|
A|------------------------------------------------------------------|
E|------------------------------------------------------------------|

e|---------------------------------------------------------------------------------|
B|---------------------------------------------------------------------------------|
G|-0-0h2-0h2-0h2-0h2-2\4-0-0---0-0h2-0h2-0h2-0h2-2\4-0-0---0-2-2-2-2-2-2-2-2\4-2-0-|
D|--------------------------2---------------------------2--------------------------|
A|---------------------------------------------------------------------------------|
E|---------------------------------------------------------------------------------|

e|-----0--0---0-0--5\7-------0-0---0-0---5\7/5--|-----0--0---0-0--5\7-------0-0---0-0---5\7/5--|
B|---3--3--0-3-3-----------3--3-0-3-3---------3-|---3--3--0-3-3-----------3--3-0-3-3---------3-|
G|---0---------------------0--------------------|---0---------------------0--------------------|
D|---2---------------------2--------------------|---2---------------------2--------------------|
A|---3---------------------3--------------------|---3---------------------3--------------------|
E|----------------------------------------------|----------------------------------------------|            
Submit corrections


        There For You lessons Hard to play? Try these video lessons and learn fast There For You lessons
        
↑ Back to top | Tablatures and chords for acoustic guitar and electric guitar, ukulele, drums are parodies/interpretations of the original songs. You may use it for private study, scholarship, research or language learning purposes only