Home » M » Maroon 5 »

Maroon 5 - Makes Me Wonder Tabs

Artists:  A B C D E F G H I J K L M N O P Q R S T U V W X Y Z # 

Makes Me Wonder Tabs

(ver. 2) Click to play this song!
Maroon 5
 Rating:
4/5 (4 votes)
                Intro

e---x-x--x-x-5h7-x-x-5---7-x-x--x-x--x-x--x-x--x-x-5h7-x-x-5---7---|
B------------5h7-----5---7-------------------------5h7-----5---7---|


e---x-x--x-x-5h7-x-x-5---7-x-x--x-x--x-x--x-x--x-x-5h7-x-x-5---7----7---|
B------------5h7-----5---7-------------------------5h7-----5---7----7---|


Verse

  Bm7   A   E/G# A#dim

---7----5----4----------|
---7----5----5----------|
---7----6----4----6-----|
---7----7----6----5-----|
---9----7----7----5-----|
---7----5----4----6-----|

Pre-chorus

   G     A     G     A

---7-----5-----7-----5---|
---8-----5-----8-----5---|
---7-----6-----7-----6---|
---9-----7-----9-----7---|
---7-----7-----7-----7---|
---7-----5-----7-----5---|

   G     D     G     A

---7-----5-----7-----5---|
---8-----7-----8-----5---|
---7-----7-----7-----6---|
---9-----7-----9-----7---|
---7-----5-----7-----7---|
---7-----5-----7-----5---|

1st Chorus

  Bm7    D     A     G

---2-----5-----5-----3---|
---3-----7-----5-----3---|
---2-----7-----6-----4---| Repeat 2x
---4-----7-----7-----5---|
---2-----5-----7-----5---|
---2-----5-----5-----3---|

  Bm7   Bm7    D     A

---2-----2-----5-----5---|
---3-----3-----7-----5---|
---2-----2-----7-----6---|
---4-----4-----7-----7---|
---2-----2-----5-----7---|
---2-----2-----5-----5---|

  Bm7   Bm7    A     G

---2-----2-----5-----3---|
---3-----3-----5-----3---|
---2-----2-----6-----4---|
---4-----4-----7-----5---|
---2-----2-----7-----5---|
---2-----2-----5-----3---|

Verse 2

Pre-chorus

2nd Chorus

  Bm7    D     A     G

---2-----5-----5-----3---|
---3-----7-----5-----3---|
---2-----7-----6-----4---| Repeat 2x
---4-----7-----7-----5---|
---2-----5-----7-----5---|
---2-----5-----5-----3---|

  Bm7    D     A     D     A     G

---2-----2-----5-----5-----5-----5-----3---|
---3-----3-----7-----5-----7-----5-----3---|
---2-----2-----7-----6-----7-----6-----4---|
---4-----4-----7-----7-----7-----7-----5---|
---2-----2-----5-----7-----5-----7-----5---|
---2-----2-----5-----5-----5-----5-----3---|

  Bm7    D     A     G

---2-----5-----5-----3---|
---3-----7-----5-----3---|
---2-----7-----6-----4---| Repeat 2x
---4-----7-----7-----5---|
---2-----5-----7-----5---|
---2-----5-----5-----3---|

  Bm7   Bm7    D     A

---2-----2-----5-----5---|
---3-----3-----7-----5---|
---2-----2-----7-----6---|
---4-----4-----7-----7---|
---2-----2-----5-----7---|
---2-----2-----5-----5---|

  Bm7   Bm7    A     G

---2-----2-----5-----3---|
---3-----3-----5-----3---|
---2-----2-----6-----4---|
---4-----4-----7-----5---|
---2-----2-----7-----5---|
---2-----2-----5-----3---|


Bridge

  Bm7   A        E/G# A#dim

---7----5--------4--------------7---9---10---13---12---|
---7----5--------5--------------7---9---10---13---12---|
---7----6--------4----6---------7---9---11---13---12---|
---7----7--------6----5---------9---11--12---15---14---|
---9----7--------7----5---------9---11--12---15---14---|
---7----5--------4----6---------7---9---10---13---12---|

  Bm7   A        E/G# A#dim

---7----5--------4--------------7---9---10---12---|
---7----5--------5--------------7---9---10---12---|
---7----6--------4----6---------7---9---11---12---|
---7----7--------6----5---------9---11--12---14---|
---9----7--------7----5---------9---11--12---14---|
---7----5--------4----6---------7---9---10---12---|

Pre-chorus

Chorus

That's about it. Listen to the song to figure out stumming.
            
Submit corrections

↑ Back to top | Tablatures and chords for acoustic guitar and electric guitar, ukulele, drums are parodies/interpretations of the original songs. You may use it for private study, scholarship, research or language learning purposes only