» » »

Maroon 5 - I Wont Go Home Without You Tabs

Artists:  A B C D E F G H I J K L M N O P Q R S T U V W X Y Z # 

I Wont Go Home Without You Tabs

(ver. 1) Click to play this song!
Maroon 5
 Rating:
3.4/5 (9 votes)
                This song is like 80% right.

Intro
1.Verse 

   "I asked her to stay"    "but she wouldn't listen"
"She left before I ...."                              "Oh"

e|-------------------------------------------------------------|
B|-------------------------------------------------------------|
G|-------------------------------------------------------------|
D|--555555------------------222222------------------33333------|
A|--555555------------------222222------------------33333------|
E|--555555------------------222222------------------33333------|
 

  (you can add Am at verse)

chorus

"It's not over      
tonight...Just give 
me one more             chance  to make it right"

            (listen this part to change the chord)
e|--5---------------------7------------------------------|
B|--5---------------------7------------------------------|
G|--6---------------------8------------------------------|
D|--7---------------------9------------------------------|
A|--7---------------------9------------------------------|
E|--5---------------------7------------------------------|
(Just give me one more chance..its plays with the 577655 but just that part)

"I may not make it          "I won't go home   (same at first just listen)
through the night"             without you"


e|--8----------------5--------------4-------------|
B|--8----------------5--------------4-------------|
G|--9----------------6--------------5-------------|
D|--10---------------7--------------6-------------|
A|--10---------------7--------------6-------------|
E|--8----------------5--------------4-------------|


2.Verse 


2.chorus


Bridge

                 the things      never really     shown" 
  "Of all        I felt but
e|--5---------------5--------------7---------------7-|
B|--6---------------5--------------6---------------7-|
G|--7---------------6--------------5---------------8-|
D|--7---------------7--------------5---------------9-|
A|--5---------------7--------------7---------------9-|
E|------------------5------------------------------7-|


"Perhaps   the worst is  that  I ever let       you go"

e|--5---------------5--------------7---------------7-|
B|--6---------------5--------------6---------------7-|
G|--7---------------6--------------5---------------8-|
D|--7---------------7--------------5---------------9-|
A|--5---------------7--------------7---------------9-|
E|------------------5------------------------------7-|

"should not ever let you go, oh oh oh"

e|------7-|
B|------7-|
G|------8-|
D|------9-|
A|------9-|
E|------7-|

3.chorus 
            
Submit corrections

↑ Back to top | Tablatures and chords for acoustic guitar and electric guitar, ukulele, drums are parodies/interpretations of the original songs. You may use it for private study, scholarship, research or language learning purposes only