» » »

Maroon 5 - Girls Like You Tabs

Artists:  A B C D E F G H I J K L M N O P Q R S T U V W X Y Z # 

Girls Like You Tabs

(ver. 2) Click to play this song!
Maroon 5
 Rating:
4.3/5 (29 votes)

 Girls Like You lessons Tabs too difficult? Try these video lessons and learn fast
 
                [Intro]
e|---------------------------------------------------------------------------|
B|---------------------------------------------------------------------------|
G|---------------------------------------------------------------------------|
D|------5-5-5---3-2-----5-5-5-7--2-----5-5-5--3-2-0-2-0-0--------------------|
A|--3----------------3--------------3---------------------3------------------|
E|---------------------------------------------------------------------------|

[Verse]
e|---------------------------------------------------------------------------|
B|---------------------------------------------------------------------------|
G|---5-5-5---7/9-7p5-5-5--7/9-7p5-7-7----5-5-5-9/12-5--5-5-9/12-5-7-7--------|
D|---------------------------------------------------------------------------|
A|---------------------------------------------------------------------------|
E|---------------------------------------------------------------------------|

[Chorus]
e|---------------------------------------------------------------------------|
B|---------------------------------------------------------------------------|
G|-5-5-7-9-------------------------------------------------------------------|  x2
D|---------10-10-9-10-12--7-7-7-10-12-7-7-10-12-10-10------------------------|
A|---------------------------------------------------------------------------|
E|---------------------------------------------------------------------------|

e|---------------------------------------------------------------------------|
B|---------------------------------------------------------------------------|
G|-5-5-4-4-4-2-2-2-2-5-7-5-5-------------------------------------------------|  x2
D|---------------------------------------------------------------------------|
A|---------------------------------------------------------------------------|
E|---------------------------------------------------------------------------|

[Verse]
e|---------------------------------------------------------------------------|
B|---------------------------------------------------------------------------|
G|---5-5-5---7/9-7p5-5-5--7/9-7p5-7-7----5-5-5-9/12-5--5-5-9/12-5-7-7--------|
D|---------------------------------------------------------------------------|
A|---------------------------------------------------------------------------|
E|---------------------------------------------------------------------------|

[Chorus]
e|---------------------------------------------------------------------------|
B|---------------------------------------------------------------------------|
G|-5-5-7-9-------------------------------------------------------------------|  x2
D|---------10-10-9-10-12--7-7-7-10-12-7-7-10-12-10-10------------------------|
A|---------------------------------------------------------------------------|
E|---------------------------------------------------------------------------|

e|---------------------------------------------------------------------------|
B|---------------------------------------------------------------------------|
G|-5-5-4-4-4-2-2-2-2-5-7-5-5-------------------------------------------------|  x2
D|---------------------------------------------------------------------------|
A|---------------------------------------------------------------------------|
E|---------------------------------------------------------------------------|

[Outro]
e|---------------------------------------------------------------------------|
B|---------------------------------------------------------------------------|
G|---------------------------------------------------------------------------|
D|------5-5-5---3-2-----5-5-5-7--2-----5-5-5--3-2-0-2-0-0--------------------|
A|--3----------------3--------------3---------------------3------------------|
E|---------------------------------------------------------------------------|

            
Submit corrections


        Girls Like You lessons Hard to play? Try these video lessons and learn fast Girls Like You lessons
        
↑ Back to top | Tablatures and chords for acoustic guitar and electric guitar, ukulele, drums are parodies/interpretations of the original songs. You may use it for private study, scholarship, research or language learning purposes only