» » »

Maroon 5 - Daylight Tabs

Artists:  A B C D E F G H I J K L M N O P Q R S T U V W X Y Z # 

Daylight Tabs

(ver. 2) Click to play this song!
Maroon 5
 Rating:
4/5 (4 votes)

 Daylight lessons Tabs too difficult? Try these video lessons and learn fast
 
                Tuning: Standard

Verse
E|------------------------------------------------------------------------------------------|
B|------------------------------------------------------------------------------------------|
G|------------------------------------------------------------------------------------------|
D|---777--44--------777---44----------------------------------------------------------------| X2
A|------------7--5------------7--5--5h7h5--55/77--------------------------------------------|
E|------------------------------------------------------------------------------------------|

Pre-Chorus
E|------------------------------------------------------------------------------------------|
B|------------------------------------------------------------------------------------------|
G|------------------------------------------------------------------------------------------|  
D|----------4--7--7/9--------4--4/7--99--7--------4--7--7/9--------4--4/7--99--77-----------|
A|----5--7-------------5--7-----------------5--7-------------5--7------------------5--------|
E|------------------------------------------------------------------------------------------|

Chorus
E|------------------------------------------------------------------------------------------|
B|------------------------------------------------------------------------------------------|
G|-------------12--11--9/7/9--9/11-------1212--11--9------99--11----------------------------|  
D|-----7/9/12-----------------------7/9---------------12------------------------------------|
A|------------------------------------------------------------------------------------------|
E|------------------------------------------------------------------------------------------|

E|------------------------------------------------------------------------------------------|
B|------------------------------------------------------------------------------------------|
G|-------------12--11--9/7/9--9/11-------1212--11--9------9--7------------------------------|  
D|-----7/9/12-----------------------7/9---------------12------------------------------------|
A|------------------------------------------------------------------------------------------|
E|------------------------------------------------------------------------------------------|

E|------------------------------------------------------------------------------------------|
B|----------10---------10---------10--------------------------------------------------------|
G|---9--11------9--11------9--11------11--9--7/9/11-----------------------------------------|  X2
D|------------------------------------------------------------------------------------------|
A|------------------------------------------------------------------------------------------|
E|------------------------------------------------------------------------------------------|

Verse
E|------------------------------------------------------------------------------------------|
B|------------------------------------------------------------------------------------------|
G|------------------------------------------------------------------------------------------|
D|---777--44--------777---44----------------------------------------------------------------| X2
A|------------7--5------------7--5--5h7h5--55/77--------------------------------------------|
E|------------------------------------------------------------------------------------------|

Pre-Chorus
E|------------------------------------------------------------------------------------------|
B|------------------------------------------------------------------------------------------|
G|------------------------------------------------------------------------------------------|  
D|----------4--7--7/9--------4--4/7--99--7--------4--7--7/9--------4--4/7--99--77-----------|
A|----5--7-------------5--7-----------------5--7-------------5--7------------------5--------|
E|------------------------------------------------------------------------------------------|

Chorus 2
E|------------------------------------------------------------------------------------------|
B|------------------------------------------------------------------------------------------|
G|-------------12--11--9/7/9--9/11-------1212--11--9------99--11----------------------------|  
D|-----7/9/12-----------------------7/9---------------12------------------------------------|
A|------------------------------------------------------------------------------------------|
E|------------------------------------------------------------------------------------------|

E|------------------------------------------------------------------------------------------|
B|------------------------------------------------------------------------------------------|
G|-------------12--11--9/7/9--9/11-------1212--11--9------9--7------------------------------|  
D|-----7/9/12-----------------------7/9---------------12------------------------------------|
A|------------------------------------------------------------------------------------------|
E|------------------------------------------------------------------------------------------|

E|------------------------------------------------------------------------------------------|
B|----------10---------10---------10--------------------------------------------------------|
G|---9--11------9--11------9--11------11--9--7/9/11-----------------------------------------|  X2
D|------------------------------------------------------------------------------------------|
A|------------------------------------------------------------------------------------------|
E|------------------------------------------------------------------------------------------|

Bridge
E|------------------------------------------------------------------------------------------|
B|------------------------------------------------------------------------------------------|
G|---99999999--99999999--9/11--7--7--9/11--7-----7/6----------------------------------------|
D|--------------------------------------------9-------9-------------------------------------|
A|------------------------------------------------------------------------------------------|
E|------------------------------------------------------------------------------------------|

E|------------------------------------------------------------------------------------------|
B|------------------------------------------------------------------------------------------|
G|---99999999--99999999--9/11--7--7--9/11--7-----7--9/11------------------------------------|
D|--------------------------------------------9-----------9---------------------------------|
A|------------------------------------------------------------------------------------------|
E|------------------------------------------------------------------------------------------|

Chorus 3
E|------------------------------------------------------------------------------------------|
B|------------------------------------------------------------------------------------------|
G|---------------12121212--11--9/7/9--9/11-------1212--11--9------99--11--------------------|  
D|------------------------------------------7/9---------------12----------------------------|
A|------------------------------------------------------------------------------------------|
E|------------------------------------------------------------------------------------------|

E|------------------------------------------------------------------------------------------|
B|------------------------------------------------------------------------------------------|
G|-------------12--11--9/7/9--9/11-------1212--11--9------9--7------------------------------|  
D|-----7/9/12-----------------------7/9---------------12------------------------------------|
A|------------------------------------------------------------------------------------------|
E|------------------------------------------------------------------------------------------|

Chorus 4
E|------------------------------------------------------------------------------------------|
B|------------------------------------------------------------------------------------------|
G|-------------12--11--9/7/9--9/11-------1212--11--9------99--11----------------------------|  
D|-----7/9/12-----------------------7/9---------------12------------------------------------|
A|------------------------------------------------------------------------------------------|
E|------------------------------------------------------------------------------------------|

E|------------------------------------------------------------------------------------------|
B|------------------------------------------------------------------------------------------|
G|-------------12--11--9/7/9--9/11-------1212--11--9------9--7------------------------------|  
D|-----7/9/12-----------------------7/9---------------12------------------------------------|
A|------------------------------------------------------------------------------------------|
E|------------------------------------------------------------------------------------------|

E|------------------------------------------------------------------------------------------|
B|----------10---------10---------10--------------------------------------------------------|
G|---9--11------9--11------9--11------11--9--7/9/11-----------------------------------------|  X4
D|------------------------------------------------------------------------------------------|
A|------------------------------------------------------------------------------------------|
E|------------------------------------------------------------------------------------------|


            
Submit corrections


        Daylight lessons Hard to play? Try these video lessons and learn fast Daylight lessons
        
↑ Back to top | Tablatures and chords for acoustic guitar and electric guitar, ukulele, drums are parodies/interpretations of the original songs. You may use it for private study, scholarship, research or language learning purposes only