» » »

Maroon 5 - Cold Tabs

Artists:  A B C D E F G H I J K L M N O P Q R S T U V W X Y Z # 

Cold Tabs

(ver. 1) Click to play this song!
Maroon 5
 Rating:
4.3/5 (19 votes)
                [INTRO]
0.00 - 0.21
"Cold enough to chill my bones, it feels like I don't know you anymore..."
e|-1--1-x-1---------x-|-3--3-x-3---------x-|-0--0-x-0---------x-|-0--0-x-0---------x-|
B|-1--1-x-1---------x-|-3--3-x-3---------x-|-1--1-x-1---------x-|-0--0-x-0---------x-|
G|-2--2-x-2---------x-|-0--0-x-0---------x-|-2--2-x-2---------x-|-0--0-x-0---------x-| x2
D|-3--3-x-3---------x-|-0--0-x-0---------x-|-2--2-x-2---------x-|-2--2-x-2---------x-|
A|-3--3-x-3---------x-|-2--2-x-2---------x-|-0--0-x-0---------x-|-2--2-x-2---------x-|
E|------x-----------x-|-3--3-x-3---------x-|------x-----------x-|-0--0-x-0---------x-|
   D  U D D         D   D  U D D          D   D  U D D        D   D  U D D         D



[VERSE]
0.22 - 0.51
"Are we taking time or a time out..."
e|-1--1-1-1--1-1--1-1-|-3--3-3-3--3-3--3-3-|-0--0-0-0--0-0--0-0-|-0--0-0-0--0-0--0-0-|
B|-1--1-1-1--1-1--1-1-|-3--3-3-3--3-3--3-3-|-1--1-1-1--1-1--1-1-|-0--0-0-0--0-0--0-0-|
G|-2--2-2-2--2-2--2-2-|-0--0-0-0--0-0--0-0-|-2--2-2-2--2-2--2-2-|-0--0-0-0--0-0--0-0-| x3
D|-3--3-3-3--3-3--3-3-|-0--0-0-0--0-0--0-0-|-2--2-2-2--2-2--2-2-|-2--2-2-2--2-2--2-2-|
A|-3--3-3-3--3-3--3-3-|-2--2-2-2--2-2--2-2-|-0--0-0-0--0-0--0-0-|-2--2-2-2--2-2--2-2-|
E|--------------------|-3--3-3-3--3-3--3-3-|--------------------|-0--0-0-0--0-0--0-0-|
   .................................................................................
   D  U D D  U D  D D   D  U D D  U D  D D   D  U D D  U D  D D   D  U D D  U D  D D



[CHORUS a]
0.52 - 1.09
"Cold enough to chill my bones, it feels like I don't know you anymore..."
e|-1--1-x-1--1-x-1----|-3--3-x-3--3-x-3----|-0--0-x-0--0-x-0----|-0--0-x-0--0-x-0----|
B|-1--1-x-1--1-x-1----|-3--3-x-3--3-x-3----|-1--1-x-1--1-x-1----|-0--0-x-0--0-x-0----|
G|-2--2-x-2--2-x-2----|-0--0-x-0--0-x-0----|-2--2-x-2--2-x-2----|-0--0-x-0--0-x-0----| x2
D|-3--3-x-3--3-x-3----|-0--0-x-0--0-x-0----|-2--2-x-2--2-x-2----|-2--2-x-2--2-x-2----|
A|-3--3-x-3--3-x-3----|-2--2-x-2--2-x-2----|-0--0-x-0--0-x-0----|-2--2-x-2--2-x-2----|
E|------x------x------|-3--3-x-3--3-x-3----|------x------x------|-0--0-x-0--0-x-0----|
   D  U D D  U D D      D  U D D  U D D      D  U D D  U D D      D  U D D  U D D



[CHORUS b]
"...cold yeah, woah woah..."
1.10 - 1.19
e|--------------------|--------------------|--------------------|--------------------|
B|--------------------|--------------------|--------------------|--------------------|
G|-------5-5-5-7--7/9-|-------5-5-5-7--7/9-|-------5-5-5-7--7/9-|-------5-5-5-7--7/9-| x1
D|-7-7-7--------------|-7-7-7--------------|-7-7-7--------------|-7-7-7--------------|
A|--------------------|--------------------|--------------------|--------------------|
E|--------------------|--------------------|--------------------|--------------------|



[VERSE]
1.20 - 1.48
"What you holding on holding on for..."
e|-1--1-1-1--1-1--1-1-|-3--3-3-3--3-3--3-3-|-0--0-0-0--0-0--0-0-|-0--0-0-0--0-0--0-0-|
B|-1--1-1-1--1-1--1-1-|-3--3-3-3--3-3--3-3-|-1--1-1-1--1-1--1-1-|-0--0-0-0--0-0--0-0-|
G|-2--2-2-2--2-2--2-2-|-0--0-0-0--0-0--0-0-|-2--2-2-2--2-2--2-2-|-0--0-0-0--0-0--0-0-| x3
D|-3--3-3-3--3-3--3-3-|-0--0-0-0--0-0--0-0-|-2--2-2-2--2-2--2-2-|-2--2-2-2--2-2--2-2-|
A|-3--3-3-3--3-3--3-3-|-2--2-2-2--2-2--2-2-|-0--0-0-0--0-0--0-0-|-2--2-2-2--2-2--2-2-|
E|--------------------|-3--3-3-3--3-3--3-3-|--------------------|-0--0-0-0--0-0--0-0-|
   .................................................................................
   D  U D D  U D  D D   D  U D D  U D  D D   D  U D D  U D  D D   D  U D D  U D  D D



[CHORUS a]
1.49 - 2.08
"Cold enough to chill my bones, it feels like I don't know you anymore..."
e|-1--1-x-1--1-x-1----|-3--3-x-3--3-x-3----|-0--0-x-0--0-x-0----|-0--0-x-0--0-x-0----|
B|-1--1-x-1--1-x-1----|-3--3-x-3--3-x-3----|-1--1-x-1--1-x-1----|-0--0-x-0--0-x-0----|
G|-2--2-x-2--2-x-2----|-0--0-x-0--0-x-0----|-2--2-x-2--2-x-2----|-0--0-x-0--0-x-0----| x2
D|-3--3-x-3--3-x-3----|-0--0-x-0--0-x-0----|-2--2-x-2--2-x-2----|-2--2-x-2--2-x-2----|
A|-3--3-x-3--3-x-3----|-2--2-x-2--2-x-2----|-0--0-x-0--0-x-0----|-2--2-x-2--2-x-2----|
E|------x------x------|-3--3-x-3--3-x-3----|------x------x------|-0--0-x-0--0-x-0----|
   D  U D D  U D D      D  U D D  U D D      D  U D D  U D D      D  U D D  U D D



[CHORUS b]
"...cold yeah, woah woah..."
2.09 - 2.27
e|--------------------|--------------------|--------------------|--------------------|
B|--------------------|--------------------|--------------------|--------------------|
G|-------5-5-5-7--7/9-|-------5-5-5-7--7/9-|-------5-5-5-7--7/9-|-------5-5-5-7--7/9-| x1
D|-7-7-7--------------|-7-7-7--------------|-7-7-7--------------|-7-7-7--------------|
A|--------------------|--------------------|--------------------|--------------------|
E|--------------------|--------------------|--------------------|--------------------|



[RAP]
(same as VERSE)
2.28 - 3.05
"Never thought that you were like this..."
e|-1--1-1-1--1-1--1-1-|-3--3-3-3--3-3--3-3-|-0--0-0-0--0-0--0-0-|-0--0-0-0--0-0--0-0-|
B|-1--1-1-1--1-1--1-1-|-3--3-3-3--3-3--3-3-|-1--1-1-1--1-1--1-1-|-0--0-0-0--0-0--0-0-|
G|-2--2-2-2--2-2--2-2-|-0--0-0-0--0-0--0-0-|-2--2-2-2--2-2--2-2-|-0--0-0-0--0-0--0-0-| x3
D|-3--3-3-3--3-3--3-3-|-0--0-0-0--0-0--0-0-|-2--2-2-2--2-2--2-2-|-2--2-2-2--2-2--2-2-|
A|-3--3-3-3--3-3--3-3-|-2--2-2-2--2-2--2-2-|-0--0-0-0--0-0--0-0-|-2--2-2-2--2-2--2-2-|
E|--------------------|-3--3-3-3--3-3--3-3-|--------------------|-0--0-0-0--0-0--0-0-|
   D  U D D  U D  D D   D  U D D  U D  D D   D  U D D  U D  D D   D  U D D  U D  D D



[CHORUS a]
3.06 - 3.24
"Cold enough to chill my bones, it feels like I don't know you anymore..."
e|-1--1-x-1--1-x-1----|-3--3-x-3--3-x-3----|-0--0-x-0--0-x-0----|-0--0-x-0--0-x-0----|
B|-1--1-x-1--1-x-1----|-3--3-x-3--3-x-3----|-1--1-x-1--1-x-1----|-0--0-x-0--0-x-0----|
G|-2--2-x-2--2-x-2----|-0--0-x-0--0-x-0----|-2--2-x-2--2-x-2----|-0--0-x-0--0-x-0----| x2
D|-3--3-x-3--3-x-3----|-0--0-x-0--0-x-0----|-2--2-x-2--2-x-2----|-2--2-x-2--2-x-2----|
A|-3--3-x-3--3-x-3----|-2--2-x-2--2-x-2----|-0--0-x-0--0-x-0----|-2--2-x-2--2-x-2----|
E|------x------x------|-3--3-x-3--3-x-3----|------x------x------|-0--0-x-0--0-x-0----|
   D  U D D  U D D      D  U D D  U D D      D  U D D  U D D      D  U D D  U D D



[CHORUS b]
"...cold yeah, woah woah..."
3.25 - To End
e|--------------------|--------------------|--------------------|--------------------|
B|--------------------|--------------------|--------------------|--------------------|
G|-------5-5-5-7--7/9-|-------5-5-5-7--7/9-|-------5-5-5-7--7/9-|-------5-5-5-7--7/9-| x2
D|-7-7-7--------------|-7-7-7--------------|-7-7-7--------------|-7-7-7--------------|
A|--------------------|--------------------|--------------------|--------------------|
E|--------------------|--------------------|--------------------|--------------------|            
Submit corrections

↑ Back to top | Tablatures and chords for acoustic guitar and electric guitar, ukulele, drums are parodies/interpretations of the original songs. You may use it for private study, scholarship, research or language learning purposes only