Home » M » Mark Ronson »

Mark Ronson - Stop Me Bass

Artists:  A B C D E F G H I J K L M N O P Q R S T U V W X Y Z # 

Stop Me Bass

(ver. 3) Click to play this song!
Mark Ronson
 Rating:
4/5 (4 votes)
                Begin

G------------------|---------------|---------------|---------------|
D------------------|---------------|---------------|---------------|
A---3--------------|5--------------|6--------------|8--------------|
E------------------|---------------|---------------|---------------|

G------------------|---------------|------5---5--5-|----------------|
D---------6---6--6-|------6---6-6--|----5---5-----5|--------------10|
A-------6---6-----6|----6---6----6-|3--------------|3-335-556-668---|
E-3-4-4------------|4-------------4|---------------|----------------|

G------------------|---------------|---------------|---------------|
D---------6---6--6-|------6---6-6--|---------------|---------------|
A-------6---6-----6|----6---6----6-|---------------|---------------|
E---4--------------|4-------------4|6-6-6-6-6-6-6-1|3-3-3-3-3---3--|



Main riff
G------------------|---------------|---------------|---------------|
D------------------|----5----------|---------------|3--------------|
A---3-----3---3--34|5-------5------|6-----6---6--6-|----3-------1--|
E-------3---3---3--|------------3--|----6---6---6--|--------1------|

Alternative riff
G------------------|---------------|---------------|---------------|
D------------------|--------5------|---------------|--------3------|
A---3-----3---3--34|----5-------5--|6-----6---6--6-|----3-------3--|
E-------3---3---3--|3--------------|----6---6---6--|1--------------|



End break

G------------------|---------------|------5---5--5-|----------------|
D---------6---6--6-|------6---6-6--|----5---5-----5|--------------10|
A-------6---6-----6|----6---6----6-|3--------------|3-335-556-668---|
E-3-4-4------------|4-------------4|---------------|----------------|

G------------------|------5--------|---------------|---------------|
D---------6---6--6-|-------865-----|---------------|---------------|
A-------6---6-----6|----------865--|---------------|---------------|
E---4--------------|4------------8-|6-6-6-6-6-6-6-1|3-3-3-3-3---3--|
            
Submit corrections

↑ Back to top | Tablatures and chords for acoustic guitar and electric guitar, ukulele, drums are parodies/interpretations of the original songs. You may use it for private study, scholarship, research or language learning purposes only