Home » M » Mark Ronson »

Mark Ronson - Uptown Funk Bass

Artists:  A B C D E F G H I J K L M N O P Q R S T U V W X Y Z # 

Uptown Funk Bass

(ver. 1) Click to play this song!
Mark Ronson
Tuning:Drop D

G|----------|
D|----------|
A|----------|
D|--//12\\--|

             Main Riff                x3
G|----------|----------------------------|-------------------------|
D|----------|----------------------------|-------------------------|
A|----------|----------------------------|----------------2--3-----|
D|--//12\\--|--0~---0--5--3--0--5--3--0--|--0~---5--3--0~-------0~-|
 
 Interlude
G|--------------------------------------------------------|
D|--------------------------------------------------------|
A|--------------------------------------------------------|
D|--0---1---2---3---4---5---6---7---8---9---10---11-12\\--|

             Chorus                   
G|----------|----------------------------|-----------------------------------|
D|----------|----------------------------|-----------------------------------|
A|----------|----------------------------|-----------------------5-5-5-5-5-5-|
D|--//12\\--|--0~---0--5--3--0--5--3--0--|--0~---0--5--3--0--5---------------|
                  
G|----------------------------|----------------------------------------------|
D|----------------------------|----------------------------------------------|
A|----------------------------|-----------3--3h5-----------------5-5-5-5-5-5-|
D|--0~---0--5--3--0--5--3--0--|--0~--3h5----------0--5--3--0--5--------------|
                                 S   S    P  P   

G|------------------------------------------------------------------|
D|-12-12-12-12-12-12-------------12-12-12-12-12-12------------------|
A|-------------------5-5-5-5-5-5------------------------------------|
D|-------------------------------------------------//-\\--//-\\--0--|
                                                   S      S      S 

             Main Riff  Part 2         
G|----------|----------------------------|------------------------------|
D|----------|----------------------------|------------------------------|
A|----------|----------------------------|----3-5-----------------------|
D|--//12\\--|--0~---0--5--3--0--5--3--0--|-0~------0--5--3--0--5--3--x--|
       
G|----------------------------|------------------------------|
D|----------------------------|---10h12----------------------|
A|----------------------------|---------------------2--3-----|
D|--0~---0--5--3--0--5--3--0--|-0~------0--5--3--0--------0--|
                                S P     

  Interlude
G|--------------------------------------------------------|
D|--------------------------------------------------------|
A|--------------------------------------------------------|
D|--0---1---2---3---4---5---6---7---8---9---10---11-12\\--|

             Chorus                   
G|----------|----------------------------|-----------------------------------|
D|----------|----------------------------|-----------------------------------|
A|----------|----------------------------|-----------------------5-5-5-5-5-5-|
D|--//12\\--|--0~---0--5--3--0--5--3--0--|--0~---0--5--3--0--5---------------|
                  
G|----------------------------|----------------------------------------------|
D|----------------------------|----------------------------------------------|
A|----------------------------|-----------3--3h5-----------------5-5-5-5-5-5-|
D|--0~---0--5--3--0--5--3--0--|--0~--3h5----------0--5--3--0--5--------------|
                                 S   S    P  P    

G|------------------------------------------------------------------|
D|-12-12-12-12-12-12-------------12-12-12-12-12-12------------------|
A|-------------------5-5-5-5-5-5------------------------------------|
D|-------------------------------------------------//-\\--//-\\--0--|
                                                   S      S      S 

Bridge                      
G|----------------------------|
D|----------------------------|
A|----------------------------|
D|--0~---0--5--3--0--5--3--0--| 

                               Bass Fill 1
G|----------------------------|--------5--------|
D|----------------------------|-----------------|
A|----------------------------|----3h5---x-3h5--|
D|--0~---0--5--3--0--5--3--0--|-0~--------------|

                               Bass Fill 2                          
G|----------------------------|------------|
D|----------------------------|------------|
A|----------------------------|----2--3----|
D|--0~---0--5--3--0--5--3--0--|-0~------0~-|

                              Bass Fill 3
G|----------------------------|------------|
D|----------------------------|----10--12--|
A|----------------------------|------------|
D|--0~---0--5--3--0--5--3--0--|-0~---------|

                                                    Bass Solo
G|----------------------------|--------------------|--7--5----------------------|
D|----------------------------|--------------------|--------3--x--5--3----------|
A|----------------------------|-------------3--5---|----------------------5--3--|
D|--0~---0--5--3--0--5--3--0--|-0--3--5--7---------|----------------------------|

  Chorus                   
G|----------------------------|-----------------------------------|
D|----------------------------|-----------------------------------|
A|----------------------------|-----------------------5-5-5-5-5-5-|
D|--0~---0--5--3--0--5--3--0--|--0~---0--5--3--0--5---------------|
                  
G|----------------------------|----------------------------------------------|
D|----------------------------|----------------------------------------------|
A|----------------------------|-----------3--3h5-----------------5-5-5-5-5-5-|
D|--0~---0--5--3--0--5--3--0--|--0~--3h5----------0--5--3--0--5--------------|
                                     S    P  P   

G|------------------------------------------------------------------|
D|-12-12-12-12-12-12-------------12-12-12-12-12-12------------------|
A|-------------------5-5-5-5-5-5------------------------------------|
D|-------------------------------------------------//-\\--//-\\--0--|
                                                   S      S      S 

Outro                   
G|----------------------------|--------------------------------------|
D|----------------------------|---------------------------------3----|
A|----------------------------|-----x--3-4-5-----------x--3h5-x---5--|
D|--0~---0--5--3--0--5--3--0--|--0~-----------0--5--3----------------|

G|----------------------------|---------------------------------------------|
D|----------------------------|---------------------------------------------|
A|----------------------------|--------------3--5---5--3--------------------|
D|--0~---0--5--3--0--5--3--0--|--0~-3--5--7----------------7--5--3--5--5-3--|
 
                  
G--------------------------------------|-------------------------------------10-----|
D|-----10h12--10-----------------------|--------------12-12-12-12---10h12-x------12-|
A|-------------------------------------|-----x--3-4-5-------------------------------|
D|--0~------------0--5--3--0--5--3--0--|--0~----------------------------------------|
                  
G|------------------------------------|-------------------------------------------------|
D|------------------------------------|--------------------12-12-12-12-12---12-12-12----|
A|-----x--3-4-5-----------------------|--------------3--5-------------------------------|
D|--0~-----------0--5--3--0--5--3--0--|--0~-3--5--7-----------------------------------0-|            
Submit corrections

↑ Back to top | Tablatures and chords for acoustic guitar and electric guitar, ukulele, drums are parodies/interpretations of the original songs. You may use it for private study, scholarship, research or language learning purposes only