Home » M » Mark Chesnutt »

Mark Chesnutt - She Was Tabs

Artists:  A B C D E F G H I J K L M N O P Q R S T U V W X Y Z # 

She Was Tabs

(ver. 1) Click to play this song!
Mark Chesnutt
Mark Chesnutt - She Was (picking)



Play with capo on 1st fret.
All notes are relative to position of capo.

I've tabbed the intro and verse here.
The chorus seems to be strummed, so I didn't bother with that.


***********************************************************************



INTRO
------


This isn't exactly whats being played, but it works well.
This leads straight into the main song.


   Eb        Eb/G      Ab       Bbsus Bb

E-----2---------2---------------------------|
B----3-3-------3-3--------0---------3-2-----|
G---2---2-2---2---2-2----0-0--0----2---2----|
D--0-----0---------0----0---0-----2---------|
A--------------------------------0----------|
E------------2---------3-----3----------2---|


There is also a little bit of lead in the intro which goes:


   Eb          Eb/G            Ab   Bbsus  Bb

E--5---2-3-3/5-5------2-3-3/5-5--3-2-----------|
B-----------------------------------3--5/7\5---|
G----------------------------------------------|
D----------------------------------------------|
A----------------------------------------------|
E----------------------------------------------|



VERSE
------


   Ab       Bb   Eb   Ab         Bb7  Eb   Ab(add9)  Eb/G  

E--------------0--------------------0--------------------------
B-----0---3--------3-----3-------------3-----3-3-------3-3-----
G----0--0-----2---2-2---0--0-------0----2----2-2--0----2-2--2--
D---0----0---2---0-----0----0-----2---0--0--0----0-0--0----0-0-
A-----------0----------------0h2-0-----------------------------
E--3------------------3--------------------3----3----2----2----


   Bb7sus       Bb       Ab       Bb
                                    leads into chorus
E------------------0--------------------|
B-------3------------2------3-----------|
G------0-0--------2---2----0---0--------|
D---4h5---5-4-2--2-----2--0---0-0-------|
A--0------------0---0-------------0-----|
E------------------------3---3----------|


            
Submit corrections

↑ Back to top | Tablatures and chords for acoustic guitar and electric guitar, ukulele, drums are parodies/interpretations of the original songs. You may use it for private study, scholarship, research or language learning purposes only