Home » M » Mark Chesnutt »

Mark Chesnutt - Too Cold At Home Tabs

Artists:  A B C D E F G H I J K L M N O P Q R S T U V W X Y Z # 

Too Cold At Home Tabs

(ver. 1) Click to play this song!
Mark Chesnutt
Too Cold At Home
Mark Chesnutt
Greatest Hits CD



E----------------------------------10-9------------
B----------------------/10-10----------------------
G-----7-9-9/11--9------/11-9----9/11-9--6-7-9-9/11-
D-7-9------------7h9-------------------------------
A--------------------------------------------------
E--------------------------------------------------

E---------------------
B-----10--10----------
G-9/11--11---7---9----
D-----------------7h9-
A---------------------
E---------------------


It's Too Hot to fish....
E------------------------
B-------------------12-10
G------------------------
D------------------------
A------------------------
E------------------------

It's Too Hot for Golf...
E-----------------------------
B-------------------------10--
G--------------------7-9/11-9-
D-----------------------------
A-----------------------------
E-----------------------------

at Home
E------7/5-3------------------
B-------------7/5-3-5p3-5-5/7-
G------7/5-4------------------
D-------------7/5-4-5p4-5-5/7-
A-----------------------------
E-----------------------------


When the steel turnaround(intro lick) is played again 
the guitar doubles the first part of the lick with this...

E-7-9--10-12-10-------10-12/14---
B-8-10-12-------12-10------------
G--------------------------------
D--------------------------------
A--------------------------------
E--------------------------------

            
Submit corrections

↑ Back to top | Tablatures and chords for acoustic guitar and electric guitar, ukulele, drums are parodies/interpretations of the original songs. You may use it for private study, scholarship, research or language learning purposes only