Home » M » Mark Chesnutt »

Mark Chesnutt - I Just Wanted You To Know Chords

Artists:  A B C D E F G H I J K L M N O P Q R S T U V W X Y Z # 

I Just Wanted You To Know Chords

(ver. 2) Click to play this song!
Mark Chesnutt
Intro:
D    G    D    G

V1:
D             
 Are you alone?
G        A               D      
 Can you  talk to an old  friend
Right or wrong
G          A                 Bm  
 I had to  hear your voice again
          Bm/A          G  
Unwritten  law, protocol
         D/F#              Em            Asus 
Says to leave the past  alone 


Chorus:
Asus         A              G    
      I just wanted you to  know
           A                D     
Sometimes  driving home at  night
                          G   
I let your memory take control
            A              D    
And you're  sitting by my  side
                  G 
I turn up the radio
            A           Bm  A  Bm
Cruise down  old Route 59
                   E  Esus  E  
 Girl, it's solid  gold
              G  
I'll let you  go
        Asus   A       D    
I just  wanted you to  know

(intro)


V2:
D                
 Through the vine
G              A                    D    
 I hear your  life has turned out  well
As for mine
G                 A               Bm   
 You know, it's  really hard to  tell
                Bm/A                    G    
Cause now and  then, what might've  been
      D/F#                  Em          Asus 
Interferes with what might  be 


Chorus:
Asus         A              G    
      I just wanted you to  know
           A                D     
Sometimes  driving home at  night
                          G   
I let your memory take control
            A              D    
And you're  sitting by my  side
                  G 
I turn up the radio
            A           Bm  A  Bm
Cruise down  old Route 59
                   E  Esus  E  
 Girl, it's solid  gold
              G  
I'll let you  go
        Asus   A       D    
I just  wanted you to  know
     
Solo: 
D      G   A
(key change or continue as before Capo 1)
Eb     Ab  Bb

Cm               Cm/Bb             Ab 
 Please don't  cry I'll say goodbye
                Eb/G        Fm            Bbsus
And I won't call you anymore 

 
Chorus:
Bbsus         Bb             Ab   
      I just wanted you to  know
           Bb               Eb     
Sometimes  driving home at  night
                          Ab   
I let your memory take control
            Bb              Eb    
And you're  sitting by my  side
                  Ab 
I turn up the radio
            Bb          Cm  Bb  Cm
Cruise down  old Route 59
                   F  Fsus  F 
 Girl, it's solid  gold
              Ab  
I'll let you  go
        Bbsus   Bb       Eb    
I just  wanted you to  know

(outro)
Eb    Ab    Eb    Ab


Intro tab:
  D                  G 
----------------------------------------------------------------
----------------------------------------------------------------
----------------------------------------------------------------
-------0--3p-0--------------------------------------------------
--3/5-----------3p-0--------------------------------------------
----------------------1/3-3--1/3-3------------------------------


Solo tab:
  D                             G             A
----------------------------------------------------------------
---------------------7-----8p7--/10--8--------------------------
--------------7------7-----9p7--/11--9-7---7--------------------
--------------7--7h9-------------------7h9-7--7---7-------------
-------5--7h9---------------------------------7h9-7-------------
--5h7-----------------------------------------------------------

  Eb                                  Ab
----------------------------------------------------------------
-------------------------------/11----9p8--9p8--/11-------------
---------------------8---10p8--/12---10p8-10p8--/12-\10p8-------
---------------8-10--------------------------------------10-8---
-------6--8/10--------------------------------------------------
--6h8-----------------------------------------------------------

  Bb                  Cm    
--11-10-8-------------------------------------------------------
----------11-9-8------------------------------------------------
-----------------10-8-------------------------------------------
----------------------10----------------------------------------
----------------------------------------------------------------
----------------------------------------------------------------
            
Submit corrections

↑ Back to top | Tablatures and chords for acoustic guitar and electric guitar, ukulele, drums are parodies/interpretations of the original songs. You may use it for private study, scholarship, research or language learning purposes only