Home » M » Mark Chesnutt »

Mark Chesnutt - A Little Too Late Tabs

Artists:  A B C D E F G H I J K L M N O P Q R S T U V W X Y Z # 

A Little Too Late Tabs

(ver. 1) Click to play this song!
Mark Chesnutt
                Key:

b   =   bend                               h   =   hammer-on

p   =   pulloff                            pm  =   palm mute

br  =   bend & release                     x   =   dead note

/   =   slide up                           \   =   slide down

~   =   vibrato                            nh  =   Natural Harmonic

ah  =   Artificial Harmonic		   pbr =   pre-bend & release

bh  =   Bend and hold			   rb  =   Release bend

***********************************************************************

Intro:

E------------------------------------------------------------------
B------------------------------------------------------------------
G------------------------------------------------------------------
D------------------------------------------------------2-2-0----0--
A-----0----0----0----0----0----0----0----0----0----0-3-------3b---3
E--3b---3b---3b---3b---3b---3b---3b---3b---3b---3b-----------------

E------------------------------------------------------------------
B------------------------------------------------------------------
G------------------------------------------------------------------
D------------------------------------------------------------------
A-----------0-3p2p0---------0----0----0----0-3p0----0--------------
E-3b-0-0-3b---------3b-0-3b---3b---3b---3b-------3b----------------
            
Submit corrections

↑ Back to top | Tablatures and chords for acoustic guitar and electric guitar, ukulele, drums are parodies/interpretations of the original songs. You may use it for private study, scholarship, research or language learning purposes only