» » »

Marillion - This Train Is My Life Tabs

Artists:  A B C D E F G H I J K L M N O P Q R S T U V W X Y Z # 

This Train Is My Life Tabs

(ver. 2) Click to play this song!
Marillion
 Rating:
4/5 (4 votes)

 This Train Is My Life lessons Tabs too difficult? Try these video lessons and learn fast
 
                Tuning = Standard


03:44
SOLO
*****                                                                      
e|-UB--UB----UB------------------|-------------------------------|------------s-|
B|-6---6-----6-------------------|-------------------------------|----------11\-|
G|-8---8-8-6-8-8-6--5-6-5-----s--|--p----------------------------|--------------|
D|------------------------6--6\8-|-8-6-8-6--h--6--------------h--|---h----------|
A|-------------------------------|---------6-8---6-8-6-4--3--3-4-|-10-11-10-----|
E|-------------------------------|-------------------------------|--------------|


e|----------------------6-9-|
B|----------b-------b-9-----|
G|--------6-8-8-6-8-8-------|
D|-s--6-8-------------------|
A|-\8-----------------------|
E|--------------------------|

                                                              b 
e|------------------------------------------b-13-16-16-16-|-18--18-16-18----|---h----b------p-----p---|
B|--------------------------------------14-16-------------|--------------16-|-14-16-16-16-16-14-13-11-|
G|---------------b------------s---13-15-------------------|-----------------|-------------------------|
D|-----------11-13-13-11-13-13\15-------------------------|-----------------|-------------------------|
A|-s---11-13----------------------------------------------|-----------------|-------------------------|
E|-\13----------------------------------------------------|-----------------|-------------------------|

04:10
e|---------------------------------------------------------|-----------------|--h-p------------|
B|--h------h-----------9-------9-------9-------9-------9---|--h-----p----b-r-|-6-7-6-----------|
G|-6-8-8--6-8-8---8------8---8---8---8---8---8---8---8---8-|-6-8---8-6-8-----|-------8-6---8---|
D|------------------6------9-------8-------6-------6-------|-----------------|-----------6---6-|
A|---------------------------------------------------------|-----------------|-----------------|
E|---------------------------------------------------------|-----------------|-----------------|

            br
e|-11~~~~--14------------11-|
B|------------11---14-------|
G|--------------------------|
D|--------------------------|
A|--------------------------|
E|--------------------------|            
Submit corrections


        This Train Is My Life lessons Hard to play? Try these video lessons and learn fast This Train Is My Life lessons
        
↑ Back to top | Tablatures and chords for acoustic guitar and electric guitar, ukulele, drums are parodies/interpretations of the original songs. You may use it for private study, scholarship, research or language learning purposes only