» » »

Marillion - Chelsea Monday Bass

Artists:  A B C D E F G H I J K L M N O P Q R S T U V W X Y Z # 

Chelsea Monday Bass

(ver. 1) Click to play this song!
Marillion
 Rating:
4/5 (4 votes)

 Chelsea Monday lessons Tabs too difficult? Try these video lessons and learn fast
 
                Tuning: Standard


*let the notes ring out
|----------14----------14-|----------14----------14-|
|-12-14-15----12-14-15----|----12-14-------12-14----|
|-------------------------|-15----------15----------|
|-------------------------|-------------------------|

|-------------------------|-------------12----------|
|-------12-15-------12-15-|----------12----12-13-10-|
|-13-15-------13-15-------|-10-12-13----------------|
|-------------------------|-------------------------|
this is repeated for awile


interlude
|--------------|-----------|
|-8---8-8~-----|-5---5-5---|
|---8----------|---5-----5-|
|--------------|-----------|

 
                                    _____
                                    / *or \
|-----9---------7-------5--------------|------------------|
|---9---9-----7---7---5------------7---|------------------|
|-7-------7-5-------3-----3-2----7---7-|---7--------------|
|------------------------------5-------|-5----5-0--3-2--0-|
this is repeated for awile


|----------------|---------------------------|--------------|
|----------------|---------------------------|--------------|
|----------------|-4-2-4-4-4h5-4--2--0-2-2-2-|--------------|
|-2--0--2--2-2-2-|---------------------------|-3-3--3-3-3-3-|
also repeated


|----------------|-------------|----------------|----------------|
|----------------|-------------|----------------|----------------|
|----------------|-2--0--2-2-2-|-5--3--5--5-5-5-|-7--5--7--7-7-7-|
|-2--0--2--2-2-2-|-------------|----------------|----------------|
also repeated
            
Submit corrections


        Chelsea Monday lessons Hard to play? Try these video lessons and learn fast Chelsea Monday lessons
        
↑ Back to top | Tablatures and chords for acoustic guitar and electric guitar, ukulele, drums are parodies/interpretations of the original songs. You may use it for private study, scholarship, research or language learning purposes only