» » »

Marianas Trench - Celebrity Status Tabs

Artists:  A B C D E F G H I J K L M N O P Q R S T U V W X Y Z # 

Celebrity Status Tabs

(ver. 3) Click to play this song!
Marianas Trench
 Rating:
4/5 (4 votes)

 Celebrity Status lessons Tabs too difficult? Try these video lessons and learn fast
 
                
Intro/Verse
E|---------------------|
B|---------------------|
G|---------------------|
D|-9--9-9--9-9--9-6--9-| (3x)
A|-7--7-6--6-7--7-4--6-|
E|---------------------|
  
Pre-chorus       
E|-------------------------------------|
B|-------------------------------------|
G|-------------------------------------|
D|-66-44-22----66-44-2-2-2222-4-4-4444-|
A|-44-22-00----44-22-0-0-0000-2-2-2222-|
E|----------00-------------------------|

Chorus
E|------------------------------------------------------------------|
B|------------------------------------------------------------------|
G|------------------------------------------------------------------|
D|-9-9-9-9-9-9-9-9-9-9-9-9-2-2-2222-------------------------2-2-2-2-|
A|-7-7-7-7-7-7-7-7-6-6-6-6-0-0-0000-----------------2-2-2-2-0-0-0-0-|
E|----------------------------------0-0-0-0-0-0-0-0-0-0-0-0---------|

Verse
E|---------------------|
B|---------------------|
G|---------------------|
D|-9--9-9--9-9--9-6--9-| (2x)
A|-7--7-6--6-7--7-4--6-|
E|---------------------|

Repeat pre-chorus
Repeat chorus twice

Break
E|-x-x-xxxx-x-x-xxxx-x-x-xxxx-xx-xxxx-|
B|-x-x-xxxx-x-x-xxxx-x-x-xxxx-xx-xxxx-|
G|-x-x-xxxx-x-x-xxxx-x-x-xxxx-xx-xxxx-|
D|-x-x-xxxx-x-x-xxxx-x-x-xxxx-xx-xxxx-|
A|-x-x-xxxx-x-x-xxxx-x-x-xxxx-xx-xxxx-|
E|-x-x-xxxx-x-x-xxxx-x-x-xxxx-xx-xxxx-|

Solo
E|------------------------------------------------------------------------|
B|------------------------------------------------------------------------|
G|------------------------------------------------------------------------|
D|------------------------------------------------------------------------|
A|---764-7---764-7---------764-7---764-7-------764-7---764-7------6-6-6-6-|
E|-0-------0-------54--0---------0-------54--0-------0-------54--0-0-0-0--|

Last chorus
E|------------------------------------------------------------------|
B|------------------------------------------------------------------|
G|------------------------------------------------------------------|
D|-----------------6666666622222222----------------4444444422222222-| (2x)
A|-----------------4444444400000000----------------2222222200000000-|
E|-0000000000000000----------------0000000000000000-----------------|

Outro
E|-----------------------------------------|
B|-----------------------------------------|
G|-----------------------------------------|
D|-----------------------------------------|
A|---764-7---764-7------764-7---764-7------|
E|-0-------0-------54-0-------0-------54\0-|
            
Submit corrections


        Celebrity Status lessons Hard to play? Try these video lessons and learn fast Celebrity Status lessons
        
↑ Back to top | Tablatures and chords for acoustic guitar and electric guitar, ukulele, drums are parodies/interpretations of the original songs. You may use it for private study, scholarship, research or language learning purposes only