» » »

Marianas Trench - Celebrity Status Tabs

Artists:  A B C D E F G H I J K L M N O P Q R S T U V W X Y Z # 

Celebrity Status Tabs

(ver. 2) Click to play this song!
Marianas Trench
 Rating:
4.4/5 (7 votes)

 Celebrity Status lessons Tabs too difficult? Try these video lessons and learn fast
 
                Marianas Trench - Celebrity Status

Notes: 2) The solo section may be double-tracked, but I transcribed a single part.
       3) Feel free to reduce major/minor chords to “power” chords by dropping
          the highest note. I personally think the major/minor chords sound better.
       4) Cut and paste this file into your favourite word processing application
          and set the whole text to 10- or 11-point MS Gothic for easy viewing.

** Intro & Verse 1 **                                                     (3x)
e||---------|--------|--------|--------|--------|--------|----------|-----------||
B||---------|--------|--------|--------|--------|--------|----------|-----------||
G||*-9------|------9-|-9------|------9-|-9------|------9-|-9--------|-9--------*||
D||*-9------|------9-|-9------|------9-|-9------|------9-|-9--------|-9--------*||
A||--7------|------7-|-6------|------6-|-7------|------7-|-x--------|-6---------||
E||---------|--------|--------|--------|--------|--------|-9--------|-----------||

-------|---------|--------|-----------|---------|---------|----------|----------|
-------|-55------|-44-----|-22---44---|---------|-55------|-22222222-|-44444444-|
-11----|-66------|-44-----|-22---44---|-11------|-66------|-22222222-|-44444444-|
-22----|-66------|-44-----|-22---44---|-22------|-66------|-22222222-|-44444444-|
-22----|-44------|-22-----|-00---22---|-22------|-44------|-00000000-|-22222222-|
-00----|---------|--------|-----------|-00------|---------|----------|----------|

** Chorus 1 **
---------|---------|---------|---------|---------|---------|---------|---------|
-9-9-9-9-|-9-9-9-9-|-9-9-9-9-|-5-5-5-5-|-9-9-9-9-|-9-9-9-9-|-4-4-4-4-|-2-2-2-2-|
-9-9-9-9-|-9-9-9-9-|-9-9-9-9-|-6-6-6-6-|-9-9-9-9-|-9-9-9-9-|-4-4-4-4-|-2-2-2-2-|
-9-9-9-9-|-9-9-9-9-|-9-9-9-9-|-7-7-7-7-|-9-9-9-9-|-9-9-9-9-|-4-4-4-4-|-2-2-2-2-|
-7-7-7-7-|-7-7-7-7-|-6-6-6-6-|-7-7-7-7-|-7-7-7-7-|-7-7-7-7-|-2-2-2-2-|-0-0-0-0-|
---------|---------|---------|-5-5-5-5-|---------|---------|---------|---------|

** Verse 2 **
      Same as Verse 1, but play first line 2 times only

** Chorus 2 **
      Same as Chorus 1, but play whole figure 2 times

** Bridge **  (4x)
||-------------||
||-------------||
||*-x-x-xx-xx-*|| then Guitar Tacet until Solo
||*-x-x-xx-xx-*||
||--x-x-xx-xx--||
||--x-x-xx-xx--||

** Solo **                          (3x)
||------------------|-----------------||-----------------|--------------|
||------------------|-----------------||-----------------|--------------|
||*-----------------|----------------*||-----------------|--------------|
||*-----------------|----------------*||-----------------|--------------|
||----6-6---7~----6-|-6---7~----7-7~--||---6~----6~----6-|-(6)--6-------|
||--0-----0-----0---|---0-----0-5-4~--||-0-----0-----0---|----0---------|

** Chorus 3 **                               (4x)
||-----------|----------|----------|-----------||
||-----------|----------|-44444444-|-22222222--||
||*-11111111-|-11111111-|-44444444-|-22222222-*||
||*-22222222-|-22222222-|-44444444-|-22222222-*||
||--22222222-|-22222222-|-22222222-|-00000000--||
||--00000000-|-00000000-|----------|-----------||

** Coda **
     Repeat first half of the “Solo” figure 2 times only
            
Submit corrections


        Celebrity Status lessons Hard to play? Try these video lessons and learn fast Celebrity Status lessons
        
↑ Back to top | Tablatures and chords for acoustic guitar and electric guitar, ukulele, drums are parodies/interpretations of the original songs. You may use it for private study, scholarship, research or language learning purposes only