Home » M » Marduk »

Marduk - Glorification Of The Black God Tabs

Artists:  A B C D E F G H I J K L M N O P Q R S T U V W X Y Z # 

Glorification Of The Black God Tabs

(ver. 2) Click to play this song!
Marduk
 Rating:
4/5 (4 votes)
                Banda:Marduk
Cancion:Glorification Of The Black God
Album:Heaven Shall Burn ... When We Are Gathered
Año:1996


INTRO: Night on Bald Mountain - Modest Mussorgsky

El tema esta sacado a la perfeccion ( 666% Bueno )

Intro           
|--------------------------------------------|    
|--------------------------------------------|    
|--------------------------------------------| 
|-7~-6~-4-6-7---10---------------------------|    
|-5~-4~-2-4-5---8----4-7-777-7-777 5----(4)--|    
|--------------------2-5-555-5-555-3----(2)--|    

Riff A
|----------------------------------|
|----------------------------------|
|----------------------------------| REPEAT 4x
|-77-999999-77-9999-77-66-44-66-44-|
|-55-777777-55-7777-55-44-22-44-22-|
|----------------------------------|

RIFF B  Very Fast Picking
|---------------------------------------------|
|---------------------------------------------|
|-----------2244------------------------------| GTR 1
|-444445424------444--------------------------| 
|---------------------4-----------------------|
|---------------------2-----------------------|
                                     
|---------------------------------------------|
|---------------------------------------------|
|---------------------------------------------| GTR 2
|-4---------------------------------222-------|
|-2-[p]-----------------222233002255---222----|
|---------------------------------------------|

Riff C
|-------------------------------|
|-------------------------------|
|-------------22244-------------| GTR 1
|-444445422444------4444444-----| 
|-------------------------------|
|-------------------------------|
                                     
|-------------------------------|
|-------------------------------|
|-------------------------------| GTR 2
|---------------222-------------|
|-22222232022555---2222222------|
|-------------------------------|

Riff A
|----------------------------------|
|----------------------------------|
|----------------------------------| REPEAT 4x
|-77-999999-77-9999-77-66-44-66-44-|
|-55-777777-55-7777-55-44-22-44-22-|
|----------------------------------|

RIFF D  Repetir x4
|----------------------------------------------------------|-----|
|----------------------------------------------------------|-----|
|----------------------------------------------------------|-----|
|-7777777766666666446677101010101010-----------------------|--4--|
|-55555555444444442244558-8-8-8-8-8--444477777777777777----|--2--|
|------------------------------------222255555555555555----|-----|

      Riff E (Hermoso Riff)  2x 
|-------------------------------------------------|
|-------------------------------------------------|
|----44477744444--4447774444--4446666--4446664444-| 
|-444-----------44----------44-------44-----------|  GTR 1
|-------------------------------------------------| 
|-------------------------------------------------| 


Durante Riff E   
    x2           en la 3 parte
|------------|-----------------|
|------------|-----------------|
|------------|----6--5---------|
|-4-6--7-10--|----4--3--4-6-7--| GTR 2
|-2-4--5-8---|----------2-4-5--|
|------------|-----------------| 
            
Submit corrections

↑ Back to top | Tablatures and chords for acoustic guitar and electric guitar, ukulele, drums are parodies/interpretations of the original songs. You may use it for private study, scholarship, research or language learning purposes only