» » »

Marcus Miller - Run For Bass

Artists:  A B C D E F G H I J K L M N O P Q R S T U V W X Y Z # 

Run For Bass

(ver. 1) Click to play this song!
Marcus Miller
 Rating:
4/5 (5 votes)

 Run For lessons Tabs too difficult? Try these video lessons and learn fast
 
                Marcus Miller - Run For Cover
Standard Tuning: EADG
Lx= Lefthand slap


INTRO:              

G|-12h14p12h14b-|--6-7-----------------------7-0--------------|
D|--------------|-------------5---------------------2-5-------|
A|--------------|-----5h7-------5h7--0-Lx-xx-----2h4---5h7----|
E|--------------|--------0-Lx------0-----------------3--------|
   p               p ps  s    p s  s s    ss p p s  psps


G|-6-7-----------------------7-0-------------|
D|------------55---------------------2-5-----|
A|----5h7-------5h7--0-Lx-xx------2h4---5h7--|
E|-------0-Lx------0------------------3------|
   p ps  s    pss  s s    ss p p  s  psps 


G|-6-7-----------------------7-0-------------|
D|------------55---------------------2-5-----|
A|----5h7-------5h7--0-Lx-xx------2h4---5h7--|
E|-------0-Lx------0------------------3------|
   p ps  s    pss  s s    ss p p  s  psps 


G|-6-7--------------------------12-11-10-9-----|
D|------------5-----------55-------------------|
A|----5h7-------5h7---------/-10--9--8--7------|
E|-------0-Lx------0-Lx-x----------------------|
   p ps  s    p s  s    s pps   p sp sp sp  



Here the rest of the band starts. Sort out what you have to
repeat. It's all there so don't worry... 

G|-------9-7-----------6-7-----------------------12-11-10-9---|
D|----------h9-75---------------5----------55-----------------|
A|-----7----------h7-7----5h7------5h7--------/10--9--8--7----|
E|-0-0-----------------------0-Lx-----0-lx-x------------------|  
   s s s p p   p     s p ps  s   p s  s    spps  p sp sp sp 


G|------------9-7-------6-7-----------------------------------|
D|---------------75--------------5-----------5----------------|
A|-------7-5/7------h7-7---5h7------xx5h7---------------------|
E|-0-x0-5---------------------0-Lx--------0-Lx--00-Lx---------|
   s ss ss s  p ps     sp ps  s   p sss   s   p ss 


G|-------------------------4h5------------------12h14p12h14b--|
D|--------------------2---------------------------------------|
A|-7-----------3--5-7-----3------------2-(2)-(5)--------------|
E|--3-5-8--3-5--7-----345----3-5-8--5-------------------------|
   ss s s   s ss ss s pssssp  s s s   ss  s   s p 


G|----------------7------------------------------7-7----------|
D|------------------------------------------------------------|
A|--5--5-5-5-xx4/5---5--5-5-5h7-7--5--5-5-5-xx4/5---5h7-------|
E|-0-00-0-----------0-00-0--------0-00-0----------------------|
   spsspsp p sss  p spsspsp s   s spsspsp p sss  p ps
            
Submit corrections


        Run For lessons Hard to play? Try these video lessons and learn fast Run For lessons
        
↑ Back to top | Tablatures and chords for acoustic guitar and electric guitar, ukulele, drums are parodies/interpretations of the original songs. You may use it for private study, scholarship, research or language learning purposes only