Home » M » Marcus Miller »

Marcus Miller - Come Together Bass

Artists:  A B C D E F G H I J K L M N O P Q R S T U V W X Y Z # 

Come Together Bass

(ver. 1) Click to play this song!
Marcus Miller
 Rating:
4.3/5 (6 votes)
                This is a really fun song to play, the only parts I slap are in the main riff. If you 

Main Riff: Marcus plays it lower than the Beatles and Aerosmith version.
G--------------------|
D-------------5------|
A-----------------7\-|
E--0--0--0/5---------|

Main Riff Variation: Played on last repeat leading into Verse.
G-------------------------|
D-------------5----5h7----|
A---------------5h7---5h7-|
E--0--0--0/5--------------|


Verse: Repeated twice.
G--------------|--------------|
D-5--5-5-------|-5--5-5-------|
A--------7-5-7-|--------7-5-7-|
E--------------|--------------|

(Still the verse 1): Play the 5's steccato.
G-----------------|------------------------|
D-4--4---4-4----4-|-5-5-5-5-5-5-5-5--5---5-|
A---7-----7---7---|--------------------7---|
E-----------------|------------------------|

Second Verse:
G--------------|----------------|
D-5--5-5-------|-5--5-5h7p5-----|
A--------7-5-7-|------------5-7-|
E--------------|----------------|

G-----------------|-----------------------------------|
D-4--4---4-4----4-|-5-5-5-5-5-5-5-5--5---5-----5h7----|
A---7-----7---7---|--------------------7----5h7---5h7-|
E-----------------|-----------------------------------|


Bridge-type Riff: Timing is really tricky, feel
free to add/remove notes to fit your style of playing.
G--------/7----------------|
D--4h5-7---9--9-7-5--5-----|
A-7---------------------7\-|
E--------------------------|


the open E, it sounds good to improvize along to it. The bass solo is dubbed with more 
one bass so I left that out too. Yet again, just improvize and it will sound fine.
            
Submit corrections

↑ Back to top | Tablatures and chords for acoustic guitar and electric guitar, ukulele, drums are parodies/interpretations of the original songs. You may use it for private study, scholarship, research or language learning purposes only