Home » M » Man Overboard »

Man Overboard - Borderline Tabs

Artists:  A B C D E F G H I J K L M N O P Q R S T U V W X Y Z # 

Borderline Tabs

(ver. 2) Click to play this song!
Man Overboard
 Rating:
4.3/5 (20 votes)
                [INTRO]

d#|-------------------------------------------------------------------------------|
A#|-------------------------------------------------------------------------------|
F#|-------------------------------------------------------------------------------|
C#|-9-9-9-9-9-9-9-9-9-9-9-9-12-12-11-11-7-7-7-9-9-9-9-9-9-9-9-9-9-9-9-9-----------|
G#|-7-7-7-7-7-7-7-7-7-7-7-7-9--9--9--9--5-5-5-5-5-5-5-5-5-5-5-5-5-5-5-5-----------|
C#|-7-7-7-7-7-7-7-7-7-7-7-7-9--9--9--9--5-5-5-5-5-5-5-5-5-5-5-5-5-5-5-5-----------|

d#|---------------------------------------------------------------------------------|
A#|---------------------------------------------------------------------------------|
F#|-------------------------------------11-11-11-11-6-6-6-7-7-7-7-7-7-7-7-7-7-7-7-7-|
C#|-11-11-11-11-11-11-11-11-11-11-11-11-9--9--9--9--5-5-5-5-5-5-5-5-5-5-5-5-5-5-5-5-|
G#|-7--7--7--7--7--7--7--7--7--7--7--7--9--9--9--9--5-5-5-5-5-5-5-5-5-5-5-5-5-5-5-5-|
C#|-7--7--7--7--7--7--7--7--7--7--7--7--9--9--9--9--5-5-5-5-5-5-5-5-5-5-5-5-5-5-5-5-|



[VERSE] / "I packed my bags..."

d#|---------------------------------------------------------------------------|
A#|---------------------------------------------------------------------------|
F#|---------------------------------------------------------------------------|
C#|-9-9-9-9-5-5-5-5-0-0-0-0-0-0-0-0-------------------------------------------|
G#|-9-9-9-9-5-5-5-5-0-0-0-0-0-0-0-0--------repeat throughout the verse--------|
C#|-9-9-9-9-5-5-5-5-0-0-0-0-0-0-0-0-------------------------------------------|



[PRE-CHORUS] (Same as Intro) / "I didn't ask for much..." 

d#|-------------------------------------------------------------------------------|
A#|-------------------------------------------------------------------------------|
F#|-------------------------------------------------------------------------------|
C#|-9-9-9-9-9-9-9-9-9-9-9-9-12-12-11-11-7-7-7-9-9-9-9-9-9-9-9-9-9-9-9-9-----------|
G#|-7-7-7-7-7-7-7-7-7-7-7-7-12-9--9--9--5-5-5-5-5-5-5-5-5-5-5-5-5-5-5-5-----------|
C#|-7-7-7-7-7-7-7-7-7-7-7-7-9--9--9--9--5-5-5-5-5-5-5-5-5-5-5-5-5-5-5-5-----------|

d#|-------------------------------------------------------------------------------|
A#|-------------------------------------------------------------------------------|
F#|-------------------------------------11-11-9-9-6-6-6-7-7-7-7-7-7-7-7-7-7-7-7-7-|
C#|-11-11-11-11-11-11-11-11-11-11-11-11-9--9--9-9-5-5-5-5-5-5-5-5-5-5-5-5-5-5-5-5-|
G#|-7--7--7--7--7--7--7--7--7--7--7--7--9--9--9-9-5-5-5-5-5-5-5-5-5-5-5-5-5-5-5-5-|
C#|-7--7--7--7--7--7--7--7--7--7--7--7--9--9--9-9-5-5-5-5-5-5-5-5-5-5-5-5-5-5-5-5-|



[CHORUS] / "Freeeee..."

d#|---------------------------------------------------------------------------|
A#|---------------------------------------------------------------------------|
F#|-----7-6-----4-2-----7---7/9\7---------------------------------------------|
C#|-9-9-----5-5-----0-0---0---------------------------------------------------|
G#|-9-9-----5-5-----0-0---0------------repeat throughout the chorus-----------|
C#|-9-9-----5-5-----0-0---0---------------------------------------------------|




[VERSE]

d#|---------------------------------------------------------------------------|
A#|---------------------------------------------------------------------------|
F#|---------------------------------------------------------------------------|
C#|-9-9-9-9-5-5-5-5-0-0-0-0-0-0-0-0-------------------------------------------|
G#|-9-9-9-9-5-5-5-5-0-0-0-0-0-0-0-0--------repeat throughout the verse--------|
C#|-9-9-9-9-5-5-5-5-0-0-0-0-0-0-0-0-------------------------------------------|



[PRE-CHORUS]

d#|-------------------------------------------------------------------------------|
A#|-------------------------------------------------------------------------------|
F#|-------------------------------------------------------------------------------|
C#|-9-9-9-9-9-9-9-9-9-9-9-9-12-12-11-11-7-7-7-9-9-9-9-9-9-9-9-9-9-9-9-9-----------|
G#|-7-7-7-7-7-7-7-7-7-7-7-7-12-9--9--9--5-5-5-5-5-5-5-5-5-5-5-5-5-5-5-5-----------|
C#|-7-7-7-7-7-7-7-7-7-7-7-7-9--9--9--9--5-5-5-5-5-5-5-5-5-5-5-5-5-5-5-5-----------|

d#|-------------------------------------------------------------------------------|
A#|-------------------------------------------------------------------------------|
F#|-------------------------------------11-11-9-9-6-6-6-7-7-7-7-7-7-7-7-7-7-7-7-7-|
C#|-11-11-11-11-11-11-11-11-11-11-11-11-9--9--9-9-5-5-5-5-5-5-5-5-5-5-5-5-5-5-5-5-|
G#|-7--7--7--7--7--7--7--7--7--7--7--7--9--9--9-9-5-5-5-5-5-5-5-5-5-5-5-5-5-5-5-5-|
C#|-7--7--7--7--7--7--7--7--7--7--7--7--9--9--9-9-5-5-5-5-5-5-5-5-5-5-5-5-5-5-5-5-|



[CHORUS]

d#|---------------------------------------------------------------------------|
A#|---------------------------------------------------------------------------|
F#|-----7-6-----4-2-----7---7/9\7---------------------------------------------|
C#|-9-9-----5-5-----0-0---0---------------------------------------------------|
G#|-9-9-----5-5-----0-0---0------------repeat throughout the chorus-----------|
C#|-9-9-----5-5-----0-0---0---------------------------------------------------|

-


[BRIDGE] (2nd guitar plays the verse part unmuted)

d#|---------------------------------------------------------------------------|
A#|---------------------------------------------------------------------------|
F#|---------------------------------------------------------------------------|
C#|-14---------12---------11----------14---------16---------11----------------|
G#|-x---(x8)---x---(x8)---x---(x16)---x---(8x)---x---(x8)---x---(x16)---------|
C#|-12---------10---------9-----------12---------14---------9-----------------|

d#|---------------------------------------------------------------------------|
A#|---------------------------------------------------------------------------|
F#|---------------------------------------------------------------------------|
C#|-14---------12---------11-----------7----------9----------11---------------|
G#|-x---(x8)---x---(x8)---x----(x16)---x---(8x)---x---(x8)---x---(x16)--------|
C#|-12---------10---------9------------5----------7----------9----------------|


"I guess it's just like me...":

d#|---------------------------------------------------------------------------|
A#|---------------------------------------------------------------------------|
F#|---------------------------------------------------------------------------|
C#|-9-9-9-9-5-5-5-5-0-0-0-0-0-7-7-7-------------------------------------------|
G#|-9-9-9-9-5-5-5-5-0-0-0-0-0-7-7-7------(repeat)-----------------------------|
C#|-9-9-9-9-5-5-5-5-0-0-0-0-0-7-7-7-------------------------------------------|


[PRE-CHORUS]

d#|-------------------------------------------------------------------------------|
A#|-------------------------------------------------------------------------------|
F#|-------------------------------------------------------------------------------|
C#|-9-9-9-9-9-9-9-9-9-9-9-9-12-12-11-11-7-7-7-9-9-9-9-9-9-9-9-9-9-9-9-9-----------|
G#|-7-7-7-7-7-7-7-7-7-7-7-7-12-9--9--9--5-5-5-5-5-5-5-5-5-5-5-5-5-5-5-5-----------|
C#|-7-7-7-7-7-7-7-7-7-7-7-7-9--9--9--9--5-5-5-5-5-5-5-5-5-5-5-5-5-5-5-5-----------|

d#|-------------------------------------------------------------------------------|
A#|-------------------------------------------------------------------------------|
F#|-------------------------------------11-11-9-9-6-6-6-7-7-7-7-7-7-7-7-7-7-7-7-7-|
C#|-11-11-11-11-11-11-11-11-11-11-11-11-9--9--9-9-5-5-5-5-5-5-5-5-5-5-5-5-5-5-5-5-|
G#|-7--7--7--7--7--7--7--7--7--7--7--7--9--9--9-9-5-5-5-5-5-5-5-5-5-5-5-5-5-5-5-5-|
C#|-7--7--7--7--7--7--7--7--7--7--7--7--9--9--9-9-5-5-5-5-5-5-5-5-5-5-5-5-5-5-5-5-|

-

OUTRO / "I will get myself... Free..."

d#|---------------------------------------------------------------------------|
A#|---------------------------------------------------------------------------|
F#|---------------------------------------------------------------------------|
C#|-9-9-9-9-5-5-5-5-0-0-0-0-0-7-7-7-------------------------------------------|
G#|-9-9-9-9-5-5-5-5-0-0-0-0-0-7-7-7------(repeat)-----------------------------|
C#|-9-9-9-9-5-5-5-5-0-0-0-0-0-7-7-7-------------------------------------------|

END ON:

d#|----|
A#|----|
F#|----|
C#|-0--|
G#|-0--|
C#|-0--|            
Submit corrections

↑ Back to top | Tablatures and chords for acoustic guitar and electric guitar, ukulele, drums are parodies/interpretations of the original songs. You may use it for private study, scholarship, research or language learning purposes only