Home » M » Man Overboard »

Man Overboard - Borderline Tabs

Artists:  A B C D E F G H I J K L M N O P Q R S T U V W X Y Z # 

Borderline Tabs

(ver. 1) Click to play this song!
Man Overboard
 Rating:
3.3/5 (23 votes)
                Tuning:half-step down

lead guitar intro
e|------------------------------------------------------------------------------------|
B|------------------------------------------------------------------------------------|
G|-4------7-----6---------------------------------------------------------------------|
D|-2-12x--4-2x--4-2x----7-------------------------------------------------------------|
A|-0------0-----0-------5-12x---------------------------------------------------------|
E|----------------------3-------------------------------------------------------------|

guitar 2 intro
e|--------------------------------------------------------------------------------|
B|--------------------------------------------------------------------------------|
G|--------------------------------------------------------------------------------|
D|-7------9-----5-----------------------------------------------------------------|
A|-7-12x--9-4x--5-12x-------------------------------------------------------------|
E|-5------7-----3-----------------------------------------------------------------|

Verse
e|-----------------------------------------------------------------------------------|
B|-----------------------------------------------------------------------------------|
G|-4------------7------------------7-------------------------------------------------|
D|-4-4x--5------7-8x---------------7-8x---open!--------------------------------------|
A|-2-----5-4x---5------------------5-------------------------------------------------|
E|-------3---------------------------------------------------------------------------|
  ................. Palm muted

Chorus
e|-------------------------------------------------------------------------------|
B|-------------------------------------------------------------------------------|
G|-------------------------------------------------------------------------------|
D|--same as the Intro------------------------------------------------------------|
A|-------------------------------------------------------------------------------|
E|-------------------------------------------------------------------------------|

Chorus Pt.2 lead guitar
e|--------------------------------------------------------------------------------------|
B|--------------------------------------------------------------------------------------|
G|------7-6----------------4-2---------7-7-9-7-6----------------------------------------|
D|--------------------------------------------------------------------------------------|
A|--------------------------------5-5---------------------------------------------------|
E|-7-7----------------3-3---------------------------------------------------------------|
   . . (Palm muted)    . .         . .

Chorus pt.2 guitar 2
e|------------------------------------------------------------------------------------|
B|------------------------------------------------------------------------------------|
G|-4-------------7--------------------------------------------------------------------|
D|-4-4x---5------7-8x-----------------------------------------------------------------|
A|-2------5-4x---5--------------------------------------------------------------------|
E|--------3---------------------------------------------------------------------------|
  ................. Palm muted

Verse 2
at the end of the second time, Play everything open
e|-----------------------------------------------------------------------------|
B|-----------------------------------------------------------------------------|
G|-----------------------------------------------------------------------------|
D|--same as the first Verse----------------------------------------------------|
A|-----------------------------------------------------------------------------|
E|-----------------------------------------------------------------------------|


Bridge
e|---------------------------------------------------------------------------------------|
B|---------------------------------------------------------------------------------------|
G|-14-----12-----11-----------14-------16--------11--------------------------------------|
D|-x--4x--x--4x--x--8x--------x--4x----x--4x-----x--8x-----------------------------------|
A|-12-----10-----9------------12-------14--------9---------------------------------------|
E|---------------------------------------------------------------------------------------|

e|----------------------------------------------------------------------------------|
B|----------------------------------------------------------------------------------|
G|-7-------9------11---------7------------------------------------------------------|
D|-x-4x----x-4x---x-8x-------x--ring out--------------------------------------------|
A|-5-------7------9----------5------------------------------------------------------|
E|----------------------------------------------------------------------------------|

e|-------------------------------------------------------------------------------------|
B|-------------------------------------------------------------------------------------|
G|-4-------------7---------------------------------------------------------------------|
D|-4-4x---5------7-8x------Play this til the last Chorus drops in----------------------|
A|-2------5-4x---5---------------------------------------------------------------------|
E|--------3----------------------------------------------------------------------------|

Chorus
e|-----------------------------------------------------------------------------------|
B|-----------------------------------------------------------------------------------|
G|-----------------------------------------------------------------------------------|
D|----same as the Intro again--------------------------------------------------------|
A|-----------------------------------------------------------------------------------|
E|-----------------------------------------------------------------------------------|

Outro
e|-----------------------------------------------------------------------------------|
B|-----------------------------------------------------------------------------------|
G|-4-------------7-------------------------------------------------------------------|
D|-4-4x--5-------7-8x----------------------------------------------------------------|
A|-2-----5-4x----5-------------------------------------------------------------------|
E|-------3---------------------------------------------------------------------------|
            
Submit corrections

↑ Back to top | Tablatures and chords for acoustic guitar and electric guitar, ukulele, drums are parodies/interpretations of the original songs. You may use it for private study, scholarship, research or language learning purposes only