» » »

Mando Diao - God Knows Tabs

Artists:  A B C D E F G H I J K L M N O P Q R S T U V W X Y Z # 

God Knows Tabs

(ver. 2) Click to play this song!
Mando Diao
 Rating:
4/5 (13 votes)

 God Knows lessons Tabs too difficult? Try these video lessons and learn fast
 
                ----------------------------------------------------------------------------
                              God knows - Mando dioa
----------------------------------------------------------------------------

INTRO
    A  B    B  D    D  E         G         B
    
e|--0--x----x--x----x--x-x-x-x---x-x-x-x---x-x-x-x---x-x-x-x---------------|
B|--2--x----x--x----x--x-x-x-x---x-x-x-x---x-x-x-x---x-x-x-x---------------|
G|--2--x----x--x----x--x-x-x-x---x-x-x-x---x-x-x-x---x-x-x-x---------------|
D|--2--4----4--7----7--9-9-9-9---10101010--2-2-2-2---2-2-2-2---------------|
A|--0--2----2--5----5--7-7-7-7---12121212--4-4-4-4---4-4-4-4---------------|
E|--0--x----x--x----x--x-x-x-x---x-x-x-x---x-x-x-x---x-x-x-x---------------|

INTRO solo

e|------------------7-------------------------7--------------------7-------|
B|----------------------------------------------7-10-----------------------|
G|--7------7-9-7-9b---9-7------------7-9-7-9b-------------7-9-7-9b---9-7---|
D|----9-999----------------9-7-9-999----------------9-999----------------9-7
A|--------------------------------------------------------------------------
E|--------------------------------------------------------------------------

e|--------------------------------------------------------------------------
B|-------------------------------------------------------------------------|
G|-------7-----------------------------------------------------------------|
D|-9-999---9-7-------------------------------------------------------------|
A|-------------9-----------------------------------------------------------|
E|---------------7---------------------------------------------------------|

VERSL.

    B                 D                 E        G       
e|--x-x-x-x--x-x-x-x--x-x-x-x--x-x-x-x--x-x-x-x--x-x-x-x-------------------|
B|--x-x-x-x--x-x-x-x--x-x-x-x--x-x-x-x--x-x-x-x--x-x-x-x-------------------|
G|--x-x-x-x--x-x-x-x--x-x-x-x--x-x-x-x--x-x-x-x--x-x-x-x-------------------|
D|--2-2-2-2--2-2-2-2--5-5-5-5--5-5-5-5--7-7-7-7--10101010------------------|
A|--4-4-4-4--4-4-4-4--7-7-7-7--7-7-7-7--9-9-9-9--12121212------------------|
E|--x-x-x-x--x-x-x-x--x-x-x-x--x-x-x-x--x-x-x-x--x-x-x-x-------------------|

REFL.
  
    D        F#m      Bm       G        D        F#m      Bm
e|--2-2-2-2--2-2-2-2--2-2-2-2--3-3-3-3--2-2-2-2--2-2-2-2--2-2-2-2--2-2-2-2-|
B|--3-3-3-3--2-2-2-2--3-3-3-3--0-0-0-0--3-3-3-3--2-2-2-2--3-3-3-3--3-3-3-3-|
G|--2-2-2-2--2-2-2-2--4-4-4-4--0-0-0-0--2-2-2-2--2-2-2-2--4-4-4-4--3-3-3-3-|
D|--0-0-0-0--4-4-4-4--4-4-4-4--0-0-0-0--0-0-0-0--4-4-4-4--4-4-4-4--4-4-4-4-|
A|--x-x-x-x--4-4-4-4--2-2-2-2--2-2-2-2--x-x-x-x--4-4-4-4--2-2-2-2--2-2-2-2-|
E|--x-x-x-x--2-2-2-2--2-2-2-2--3-3-3-3--x-x-x-x--2-2-2-2--2-2-2-2--2-2-2-2-|

    D        F#m      Bm       G        D        F#m      E        G
e|--2-2-2-2--2-2-2-2--2-2-2-2--3-3-3-3--2-2-2-2--2-2-2-2--x-x-x-x--3-3-3-3-|
B|--3-3-3-3--2-2-2-2--3-3-3-3--0-0-0-0--3-3-3-3--2-2-2-2--x-x-x-x--0-0-0-0-|
G|--2-2-2-2--2-2-2-2--4-4-4-4--0-0-0-0--2-2-2-2--2-2-2-2--1-1-1-1--0-0-0-0-|
D|--0-0-0-0--4-4-4-4--4-4-4-4--0-0-0-0--0-0-0-0--4-4-4-4--2-2-2-2--0-0-0-0-|
A|--x-x-x-x--4-4-4-4--2-2-2-2--2-2-2-2--x-x-x-x--4-4-4-4--2-2-2-2--2-2-2-2-|
E|--x-x-x-x--2-2-2-2--2-2-2-2--3-3-3-3--x-x-x-x--2-2-2-2--0-0-0-0--3-3-3-3-|
   
    E        G
e|--x-x-x-x--3-3-3-3-------------------------------------------------------|
B|--x-x-x-x--0-0-0-0-------------------------------------------------------|
G|--1-1-1-1--0-0-0-0-------------------------------------------------------|
D|--2-2-2-2--0-0-0-0-------------------------------------------------------|
A|--2-2-2-2--2-2-2-2-------------------------------------------------------|
E|--0-0-0-0--3-3-3-3-------------------------------------------------------|

SOLO

e|-------------------------------------------------------------------------|
B|-----10-7----------------------------------------------------------------|
G|---7------9-7-9b-7---------------------7--------7-----7-----7-9-9-9b-7---|
D|-9-----------------9-7-9-9b-7-------7-9---9--7-9---7-9---7-9-----------9-9
A|------------------------------9-7-9---------------------------------------
E|-------------------------------------------------------------------------|

e|------------------------------7------------------------7--------7--------7
B|---------------------------------------------------------7-10-7---7-1010-|
G|---------------------7-9-7-9b---9-7-----------7-9-7-9b-------------------|
D|-9-9-9-9-7---7-9-999----------------9-7-9-999----------------------------|
A|-----------9-------------------------------------------------------------|
E|-------------------------------------------------------------------------|

e|-10-12-12-12b-10-7-------------------------------------------------------|
B|-------------------------------------------------------------------------|
G|-------------------------------------------------------------------------|
D|-------------------------------------------------------------------------|
A|-------------------------------------------------------------------------|
E|-------------------------------------------------------------------------|

| b  Bend
| /  slide up
| \  slide down
| h  hammer-on
| p  pull-off
| ~  vibrato
| +  harmonic
| x  Mute note
============================================================================


I hope you find this good and if you got any questions abot it just mail me.
            
Submit corrections


        God Knows lessons Hard to play? Try these video lessons and learn fast God Knows lessons
        
↑ Back to top | Tablatures and chords for acoustic guitar and electric guitar, ukulele, drums are parodies/interpretations of the original songs. You may use it for private study, scholarship, research or language learning purposes only