Home » M » Mando Diao »

Mando Diao - Ochrasy Chords

Artists:  A B C D E F G H I J K L M N O P Q R S T U V W X Y Z # 

Ochrasy Chords

(ver. 1) Click to play this song!
Mando Diao
 Rating:
4/5 (4 votes)
                        Lotte86 (Lyric and Chrous)



Intro/Verse:

  C                        C7
|---------------------------------------------|
|-1---11---11---11---11---11---11---11--------|
|---0----0----0----0----3----3----3----3------|
|---------------------------------------------|
|-3----3----3----3----3----3----3----3--------|
|---------------------------------------------|

  C6                  C
|---------------------------------------------|
|11---11---11---11---11---11---11---11--------|
|---2----2----2----2----0----0----0----0------|
|---------------------------------------------|
|-3----3----3----3----3----3----3----3--------|
|---------------------------------------------|


Verse 1:

I feel dizzy all laid back and I'm too blind to see 
What's going on outside my lonely window
I'm turning on the TV screen watch the news for a while 
Then I fall back to sleep again


Chorus:
				G	
And I'm dreaming 'bout times, times that are gone 
		   Em			  Am
Times when I lived alone in my own land called ochrasy
      D 
That place was everything to me
 
The world I made it up you see
     G 
It's all there in my fantasy
 
And I believe it 


Verse 2:

I'm waking up again and see that war on screen again 
And it makes me want to go and hide 
This world is full of misery, the anger is too big to see 
That's why I had to dream this dream 


Chorus:
				G	
And I'm dreaming 'bout times, times that are gone 
		   Em			  Am
Times when I lived alone in my own land called ochrasy
      D 
That place was everything to me
 
The world I made it up you see
     G 
It's all there in my fantasy
 
And I believe it 
Verse 3:

Now they come again all these soldiers without shame 
Dressed in black an equipped with fire 
They can stop our happy days and put us in the graves 
But never reach the ochrasy 


Chorus:
				G	
And I'm dreaming 'bout times, times that are gone 
		   Em			  Am
Times when I lived alone in my own land called ochrasy
      D 
That place was everything to me
 
The world I made it up you see
     G 
It's all there in my fantasy
 
And I believe it 


Verse 4:

I'm waking up again and see that war on screen again 
And it makes me want to go and hide 
This world is full of misery the anger is too big to see 
That's why I had to dream this dream
            
Submit corrections

↑ Back to top | Tablatures and chords for acoustic guitar and electric guitar, ukulele, drums are parodies/interpretations of the original songs. You may use it for private study, scholarship, research or language learning purposes only