» » »

Mana - El Muelle De San Blas Tabs

Artists:  A B C D E F G H I J K L M N O P Q R S T U V W X Y Z # 

El Muelle De San Blas Tabs

(ver. 2) Click to play this song!
Mana
 Rating:
4/5 (4 votes)

 El Muelle De San Blas lessons Tabs too difficult? Try these video lessons and learn fast
 
                Esta Cancion Esta Muy Facil :D
Esta Hecha de memoria por mi asi que si tiene una duda o algo solo diganme en mi correo 
OK, espero que les guste XD

--------0---------------------|
-----0-----0------------------|
----0-0---0-0-----------------|
------------------------------|
------------------------------|
-0~---------------------------|

--------0---------------------|
-----2-----2------------------|
----2-2---2-2-----------------|
------------------------------|
-0~---------------------------|
------------------------------|

--------2---------------------|
-----3-----3------------------|
----2-2---2-2-----------------|
-0~---------------------------|
------------------------------|
------------------------------|

--------3----3----------------|
-----0----0---0---------------|
----0-0-----0-----------------|
------------------------------|
------------------------------|
-3~---------------------------|


Significados de simbolos
~ Dejala sonar la cuerda un rato
            
Submit corrections


        El Muelle De San Blas lessons Hard to play? Try these video lessons and learn fast El Muelle De San Blas lessons
        
↑ Back to top | Tablatures and chords for acoustic guitar and electric guitar, ukulele, drums are parodies/interpretations of the original songs. You may use it for private study, scholarship, research or language learning purposes only