» » »

Malta - Olmaz Tabs

Artists:  A B C D E F G H I J K L M N O P Q R S T U V W X Y Z # 

Olmaz Tabs

(ver. 2) Click to play this song!
Malta
 Rating:
4.4/5 (5 votes)

 Olmaz  lessons Tabs too difficult? Try these video lessons and learn fast
 
                [Intro]

D|-----------------------------------------------------------------------------------------------------------|
A|-----------------------------------------------------------------------------------------------------------|
F|------------2---------5--2--3-----2------------------------------------------------------------------------|
C|----2/3--5-----5--3------------5-----3--5--2--3-----2-------------2-----------2--3--2--------2--3--2--3--5-|
G|-------------------------------------------------5-----5--1/3--5-----5--3--5-----------5--5----------------|
D|-----------------------------------------------------------------------------------------------------------|

D|-----------------------------------------------------------------------------------------------------------|
A|-----------------------------------------------------------------------------------------------------------|
F|------------2---------5--2--3-----2------------------------------------------------------------------------|
C|----2/3--5-----5--3------------5-----3--5--2--3-----2-------------2----------------------------------------|
G|-------------------------------------------------5-----5--1/3--5-----5--3--5--------3/5--------------------|
D|------------------------------------------------------------------------------5--1-------------------------|


[Verse]

D|-----------------------------------------------------------------------------------------------------------|
A|-----------------------------------------------------------------------------------------------------------|
F|-------7--------------------12-----------------------3--------------------2--------2-----------------------|
C|----------5--7------------------10--12------------------2--2--3--5-----2--------2--------------------------|
G|----5-----------7--8----10--------------12--13----1-----------------4--------4-----------------------------|
D|-----------------------------------------------------------------------------------------------------------|


[Chorus]

D|-------0-----------0-----------0---------------------------------------------------------------------------|
A|----------6-----------6-----------3------------------------------------------------------------------------|
F|----7--------7--5--------5--3--------3---------------------------------------------------------------------|
C|----------------------------------------5--7---------------------------------------------------------------|
G|----------------------------------------3--5---------------------------------------------------------------|
D|-----------------------------------------------------------------------------------------------------------|

[Outro]

D|-------0-----------0-----------0--------------0------------------------------------------------------------|
A|----------6-----------6-----------3--------2-----2---------------------------------------------------------|
F|----7--------7--5--------5--3--------3--2-----------2------------------------------------------------------|
C|-----------------------------------------------------------------------------------------------------------|
G|-----------------------------------------------------------------------------------------------------------|
D|-----------------------------------------------------------------------------------------------------------|            
Submit corrections


        Olmaz  lessons Hard to play? Try these video lessons and learn fast Olmaz  lessons
        
↑ Back to top | Tablatures and chords for acoustic guitar and electric guitar, ukulele, drums are parodies/interpretations of the original songs. You may use it for private study, scholarship, research or language learning purposes only