Home » M » Mallory Knox »

Mallory Knox - 1949 Tabs

Artists:  A B C D E F G H I J K L M N O P Q R S T U V W X Y Z # 

1949 Tabs

(ver. 2) Click to play this song!
Mallory Knox
 Rating:
3.6/5 (25 votes)
                Capo on 2nd

e-0---0---0---0----|
B-0---0---0---0----|
G-0---0---0---0----| Verse and intro
D-5---4---2---2----|
A-7---5---3---3----|
E-7---5---3---3----|
  Em  D   C   C


e--0--0--0--|
B--0--0--0--|
G--0--0--0--| Bridge x2
D--4--5--2--|
A--5--7--3--|
E--5--7--3--|
   D  Em C



e--3--3--3--3--|
B--3--3--3--3--|
G--0--0--0--2--| Chorus x3 (you can keep them the same as the verse but it sounds better as full chords)
D--2--2--0--0--|
A--3--3--2--0--|
E--0--0--3--2--|
   C  C  G  D


e--3--3--3--3--|
B--3--3--3--3--|
G--0--2--0--0--| On the the last bar of the chorus x1
D--2--0--2--2--|
A--2--0--3--3--|
E--0--2--0--0--|
   Em D  C  C

e-----------------------------------------------|
B-----------------------------------------------|
G-------7---7--9--7-----------------------------| Solo thing (cant make out the whole tab)
D--7--9---9---------------5---5--7--5-----------|
A--------------------5--7---7-------------------|
E-----------------------------------------------|            
Submit corrections

↑ Back to top | Tablatures and chords for acoustic guitar and electric guitar, ukulele, drums are parodies/interpretations of the original songs. You may use it for private study, scholarship, research or language learning purposes only