Home » M » Makoto Kawamoto »

Makoto Kawamoto - Smoke Filled Room Tabs

Artists:  A B C D E F G H I J K L M N O P Q R S T U V W X Y Z # 

Smoke Filled Room Tabs

(ver. 1) Click to play this song!
Makoto Kawamoto
 Rating:
4.3/5 (19 votes)
                E B F# G#m F#

[Verse 1]
e|----------------------------------|-----------------------------------------|
B|----------------------------------|-----------------------------------------|
G|--4-6-6--4-4-6-6--4-4-6-6--8-11-8-|-4-6-6--4-4-6-6--4-6-6-6-6-6-4-4---------|
D|----------------------------------|-----------------------------------------|
A|----------------------------------|-----------------------------------------|
E|----------------------------------|-----------------------------------------|

[Pre-Chorus]
e|---------------------------------------------------------------------------|
B|---5-7-7-------------------------------------------------------------------|
G|----------4-6-6--4-6-6-6-6-6--4-4------------------------------------------|
D|---------------------------------------------------------------------------|
A|---------------------------------------------------------------------------|
E|---------------------------------------------------------------------------|
                                                                          x2

[Chorus 1]
e|--------------------------------------|-------------------------------------|
B|--------------------------------4-----|-------------------------------4-----|
G|--1-3-4-6-8-11-8-6--4-4-6-6-6-6---4-4-|-1-3-4-6-8-11-8-6--4-6-6-6-6-6---4---|
D|--------------------------------------|-------------------------------------|
A|--------------------------------------|-------------------------------------|
E|--------------------------------------|-------------------------------------|
                                                                          x2
[Solo/Instrumental 1]
e|------------11-|-11-9-11-14-11-|-9-7-9-14-11-|-9-7-9-11-9-h11p-9p-7-----------|
B|--9----9-12----|---------------|-------------|--------------------------------|
G|----11---------|---------------|-------------|--------------------------------|
D|---------------|---------------|-------------|--------------------------------|
A|---------------|---------------|-------------|--------------------------------|
E|---------------|---------------|-------------|--------------------------------|
                                                                           x2

[Solo/Instrumental 1] 
(is played twice on one guitar while the other plays [Chorus 1] once)

[Verse 2]
e|----------------------------------|-----------------------------------------|
B|----------------------------5-4-2-|-----------------------------------------|
G|-4-6-6--4-4-6-6--4-4-6-6--4-------|-4-6-6--4-4-6-6--4-6-6-6-6-6-4-4---------|
D|----------------------------------|-----------------------------------------|
A|----------------------------------|-----------------------------------------|
E|----------------------------------|-----------------------------------------|

[Pre-Chorus 2]
e|---------------------------------------------------------------------------|
B|---5-7-7-------------------------------------------------------------------|
G|----------4-6-6--4-6-6-6-6-6--4-4------------------------------------------|
D|---------------------------------------------------------------------------|
A|---------------------------------------------------------------------------|
E|---------------------------------------------------------------------------|
                                                                          x2

[Chorus 2]
e|--------------------------------------|-------------------------------------|
B|--------------------------------4-----|-------------------------------4-----|
G|--1-3-4-6-8-11-8-6--4-4-6-6-6-6---4-4-|-1-3-4-6-8-11-8-6--4-6-6-6-6-6---4---|
D|--------------------------------------|-------------------------------------|
A|--------------------------------------|-------------------------------------|
E|--------------------------------------|-------------------------------------|
                                                                          x2
[Solo/Instrumental 2]
e|------------11-|-11-9-11-14-11-|-9-7-9-14-11-|-9-7-9-11-9-h11p-9p-7-----------|
B|--9----9-12----|---------------|-------------|--------------------------------|
G|----11---------|---------------|-------------|--------------------------------|
D|---------------|---------------|-------------|--------------------------------|
A|---------------|---------------|-------------|--------------------------------|
E|---------------|---------------|-------------|--------------------------------|
               
Submit corrections

↑ Back to top | Tablatures and chords for acoustic guitar and electric guitar, ukulele, drums are parodies/interpretations of the original songs. You may use it for private study, scholarship, research or language learning purposes only