» » »

Mago De Oz - Pensando En Ti Tabs

Artists:  A B C D E F G H I J K L M N O P Q R S T U V W X Y Z # 

Pensando En Ti Tabs

(ver. 3) Click to play this song!
Mago De Oz
 Rating:
4/5 (4 votes)

 Pensando En Ti lessons Tabs too difficult? Try these video lessons and learn fast
 
                NO PS AKI ESTA OTRA KOLABORACION MIA, HABER SI LES GUSTA, ES UN POKITO DIFERENTE
A LO KE ESTAMOS AKOSTUMBRADOS A VER KOMO LA TAB DE ESTA ROLA, ASI KE AKI VOY:

  INTRO
e|-----------------------------|-----------------------------|
B|-1--1---0--0---3--3---1--1---|-0--0---3--3---1--1---0--0---|
G|---0-0----0-0----0-0----0-0--|---2-2----2-2----2-2----2-2--|
D|--2---2--2---2--2---2--2---2-|--2---2--2---2--2---2--2---2-|
A|-3------3------3------3------|-0------0------0------0------|
E|-----------------------------|-----------------------------|

e|-----------------------------|-----------------------------|
B|-3--3---1--1---0--0---3--3---|-1--1---0--0---3--3---1--1---|
G|---0-0----0-0----0-0----0-0--|---2-2----2-2----2-2----2-2--|
D|--2---2--2---2--2---2--2---2-|--2---2--2---2--2---2--2---2-|
A|-3------3------3------3------|-0------0------0------0------|
E|-----------------------------|-----------------------------|

  PRE CORO O ESTRIBILLO (CASI TODA LA CANCION)
e|-----------------------------|-3--3---1--1---0--0----------|
B|-0--0---1--1---3--3---3--3---|---0-0----0-0----0-0--3--3---|
G|---0-0----0-0----0-0----0-0--|--0---0--0---0--0---0---0-0--|
D|--2---2--2---2--2---2--2---2-|-----------------------2---2-|
A|-3------3------3------3------|-3------3------3------3------|
E|-----------------------------|-----------------------------|

  COROS (ESTA PARTE ESTA MEDIO EN DUDA, IGUAL SE OYE BIEN)
e|-----------------------------|-----------------------------|
B|-0--0---0--0---0--0---0--0---|-1--1---1--1---1--1---1--1---|
G|---0-0----0-0----0-0----0-0--|---0-0----0-0----0-0----0-0--|
D|--2---2--2---2--2---2--2---2-|--2---2--2---2--2---2--2---2-|
A|-3------3------3------3------|-3------3------3------3------|
E|-----------------------------|-----------------------------|

  SOLO
e|--------------------------------------------------------------|
B|-2/14-13-12-11-12--11-10-9-10-11--10-9-8--8-9-8-7-8-7-6-7-6-5-|
G|--------------------------------------------------------------|
D|--------------------------------------------------------------|
A|--------------------------------------------------------------|
E|--------------------------------------------------------------|

e|----------------------------------------|
B|-5-6-7-6-7-8-9-8-9-10-11-10-11-12-14/13-|
G|----------------------------------------|
D|----------------------------------------|
A|----------------------------------------|
E|----------------------------------------|

e|--------------------------------------------|
B|-13H14-13-12-13-12-11-12-11-10-11-10-9/0--0-|
G|--------------------------------------------|
D|--------------------------------------------|
A|--------------------------------------------|
E|--------------------------------------------|

  FINAL TIPO FOLKTERGEIST
e|-------------------------------|
B|-8-7-6-------------------------|
G|-------8-7-6-------------------|
D|-------------8-7-6-------------|
A|-------------------8-7-6-------|
E|-------------------------8-7-6-|
            
Submit corrections


        Pensando En Ti lessons Hard to play? Try these video lessons and learn fast Pensando En Ti lessons
        
↑ Back to top | Tablatures and chords for acoustic guitar and electric guitar, ukulele, drums are parodies/interpretations of the original songs. You may use it for private study, scholarship, research or language learning purposes only