» » »

Madness - Bed And Breakfast Man Bass

Artists:  A B C D E F G H I J K L M N O P Q R S T U V W X Y Z # 

Bed And Breakfast Man Bass

(ver. 2) Click to play this song!
Madness
 Rating:
4/5 (4 votes)
                verse

G|----------6/9----------|
D|--------4-------11---9-|
A|----5-5-------9----7---|
E|5-5--------------------|

ref
G|--------------------------------|
D|------------4-7-4-4-4-4---------|
A|-----4-7-5-5-------------7-7-5-5|
E|-5-5----------------------------|

haven't figured out the bridge yet
            
Submit corrections

↑ Back to top | Tablatures and chords for acoustic guitar and electric guitar, ukulele, drums are parodies/interpretations of the original songs. You may use it for private study, scholarship, research or language learning purposes only