» » »

Madisen Ward And The Mama Bear - Silent Movies Chords

Artists:  A B C D E F G H I J K L M N O P Q R S T U V W X Y Z # 

Silent Movies Chords

(ver. 3) Click to play this song!
Madisen Ward And The Mama Bear
 Rating:
3.6/5 (24 votes)

 Silent Movies  lessons Tabs too difficult? Try these video lessons and learn fast
 
                No Capo 

V:  F  F Am Dm
Ch: Bb Dm F Am 

Intro/main riff:

e|-----------------------------------------------------------------------|
B|--------1--3/6-3--1----------1--3/6-6-6-5-5-5/6/5-5-3--3-3-3p1--3/6-6--|
G|----0-2------------------0-2-------------------------------------------|
D|-3--------------------3------------------------------------------------|
A|-----------------------------------------------------------------------|
E|-----------------------------------------------------------------------|

or:

e|--------------1--------------------1-1-1-0-0-0h1p0-----------------1-1-|
B|--------1--3---3--1----------1--3-------------------3--3-3-3p1--3------|
G|----0-2------------------0-2-------------------------------------------|
D|-3--------------------3------------------------------------------------|
A|-----------------------------------------------------------------------|
E|-----------------------------------------------------------------------|

Verse 1:

F
How bout we just sing forever? bring your friends, close together 
Am            Dm
baby ahhhhhh, baby ahhaahaaaa
F
Where you talk lets call your lies, sure don't know join the choir
Am            Dm
baby ahhhhhh, baby ahhaahaaaa


Chorus 1:

Bb
Silent movies make more money
Dm                             F              Am
So how bout we make more money girl?, woah oh girl
Bb
When you dance they call you funny
Dm                             F            Am
So how bout we get real funny girl? woah oh girl....
            
Submit corrections


        Silent Movies  lessons Hard to play? Try these video lessons and learn fast Silent Movies  lessons
        
↑ Back to top | Tablatures and chords for acoustic guitar and electric guitar, ukulele, drums are parodies/interpretations of the original songs. You may use it for private study, scholarship, research or language learning purposes only