» » »

Madisen Ward And The Mama Bear - Silent Movies Tabs

Artists:  A B C D E F G H I J K L M N O P Q R S T U V W X Y Z # 

Silent Movies Tabs

(ver. 1) Click to play this song!
Madisen Ward And The Mama Bear
 Rating:
3.1/5 (26 votes)

 Silent Movies  lessons Tabs too difficult? Try these video lessons and learn fast
 
                Verse

| Guitar 1 |

e|-----------------------------|
B|-----1-----------1-----------|
G|-----------------2-----------|   Repeat
D|-----2-----2-----2-----------|
A|-----3-----2-----------------|
E|-----3-----------------------|


| Guitar 2 |

e|-------------------------------------------------------------------|
B|-------------------------------------------------------------------|
G|-----0--2--5---5/7\5------------0--2--5---5/7\5---5--4-------------|
D|-------------------------------------------------------------------|
A|--3------------------------3---------------------------------------|
E|-------------------------------------------------------------------|

... Continued

e|---------------------------------------------------------------------------|
B|---------------------------------------------------------------------------|
G|---4h5p4--4h5p4---4--2---0h2--2--2--2p0---2/5------------------------------|
D|---------------------------------------------------------------------------|
A|---------------------------------------------------------------------------|
E|---------------------------------------------------------------------------|


Chorus

e|---1-------------------------|
B|---1-----1-----1-------------|
G|---2-----2-------------------|   
D|---3-----2-----2-----2-------|
A|---3-----------3-----2-------|
E|---1-----------3-------------|            
Submit corrections


        Silent Movies  lessons Hard to play? Try these video lessons and learn fast Silent Movies  lessons
        
↑ Back to top | Tablatures and chords for acoustic guitar and electric guitar, ukulele, drums are parodies/interpretations of the original songs. You may use it for private study, scholarship, research or language learning purposes only