» » »

Mad Capsule Markets - Good Girl Bass

Artists:  A B C D E F G H I J K L M N O P Q R S T U V W X Y Z # 

Good Girl Bass

(ver. 1) Click to play this song!
Mad Capsule Markets
 Rating:
4/5 (4 votes)
                Intro:
G---------------------------
D---------------------------
A---------------------------
E--1-1-1-1-1-1-1-1-1-1-1-1--

Just play the 1's the amount of times needed,

Chorus:
G---------------------------------------
D---------------------------------------
A--3-333333-0-000000----------3-333333--
E--------------------1-111111-----------

Repeat this the amount of times needed,

Verses:
G---------------------------
D---------------------------
A---------------------------
E--1-121-1-120-1-121-1-120--

Repeat this the amount of times needed,

First part of break:
G---------------------
D---------------------
A---------------------
E--2-1--2-1--2-1-2-1--

Repeat this till the 2nd bit of break,

Second part of break:
G---------------
D---------------
A---------------
E--0-0-0-2-2-2--

Song structure:
Intro
Chorus                     
Verse
Chorus
First part of break
Second part of break
Chorus
Verse
Chorus 
Intro

Thats it! A very simple song, ideal for 
someone who is just started learning Bass.
Please rate it and send any comments to 
            
Submit corrections

↑ Back to top | Tablatures and chords for acoustic guitar and electric guitar, ukulele, drums are parodies/interpretations of the original songs. You may use it for private study, scholarship, research or language learning purposes only