» » »

Lykke Li - I Follow Rivers Tabs

Artists:  A B C D E F G H I J K L M N O P Q R S T U V W X Y Z # 

I Follow Rivers Tabs

(ver. 3) Click to play this song!
Lykke Li
 Rating:
4/5 (22 votes)

 I Follow Rivers lessons Tabs too difficult? Try these video lessons and learn fast
 
                INTRO:

e|---------------------------------------------------------------------------|
B|---------------------------------------------------------------------------|
G|----2-2--------------------------------------------------------------------| (x2)
D|--------3-5----------3-3-3-3-2----------2-2--------------------------------|
A|------------5-----------------5-------------3-5----------3-3-3-3-5---------|
E|------------------------------------------------5------------------5-------|

(Verse) 

Dm                      Am
Oh I beg you can I follow
Dm                       Am
Oh I ask you why not always
Dm                        Am
Be the ocean where I unravel
Dm                                 Am
Be my only, be the water where I'm wading
Dm                              Am
You're my river running high, run deep run wild

(Chorus)

F           Dm            Am            C
I I follow, I follow you deep sea baby, I follow you
F           Dm            Am              C
I I follow, I, I follow you, dark doom honey

(Verse 2)

Dm                       Am  
He a message i'm the runner
Dm               Am
He's the rebel I'm the daughter waiting for you
Dm                            Am
You're my river running high, run deep run wild

(Chorus)

F           Dm            Am            C
I I follow, I follow you deep sea baby, I follow you
F           Dm            Am              C
I I follow, I, I follow you, dark doom honey, I follow you

e|---------------------------------------------------------------------------|
B|---------------------------------------------------------------------------|
G|----2-2--------------------------------------------------------------------| (x2)
D|--------3-5----------3-3-3-3-2----------2-2--------------------------------|
A|-------------5-----------------5------------3-5----------3-3-3-3-5---------|
E|------------------------------------------------5------------------5-------|

(Bridge)

Dm                            Am
You're my river running high, run deep run wild

(Final Chorus)

F           Dm            Am            C
I I follow, I follow you deep sea baby, I follow you
F           Dm            Am              C
I I follow, I, I follow you, dark doom honey, I follow you

F           Dm            Am            C
I I follow, I follow you deep sea baby, I follow you
F           Dm            Am              C
I I follow, I, I follow you, dark doom honey, I follow you

e|---------------------------------------------------------------------------|
B|---------------------------------------------------------------------------|
G|----2-2--------------------------------------------------------------------| (x2)
D|--------3-5----------3-3-3-3-2----------2-2--------------------------------|
A|-------------5-----------------5------------3-5----------3-3-3-3-5---------|
E|------------------------------------------------5------------------5-------|            
Submit corrections


        I Follow Rivers lessons Hard to play? Try these video lessons and learn fast I Follow Rivers lessons
        
↑ Back to top | Tablatures and chords for acoustic guitar and electric guitar, ukulele, drums are parodies/interpretations of the original songs. You may use it for private study, scholarship, research or language learning purposes only