» » »

Lukas Rossi - Headspin Tabs

Artists:  A B C D E F G H I J K L M N O P Q R S T U V W X Y Z # 

Headspin Tabs

(ver. 1) Click to play this song!
Lukas Rossi
 Rating:
3/5 (6 votes)

 Headspin lessons Tabs too difficult? Try these video lessons and learn fast
 
                I have never seen anyone get even close to this tab before because of the tuning and it 
when you realize he plays guitar upside down like Jimi, but here it is, i don't know 
it's called i think it's open D.

e- down 2
b- down 2
g- down 1
d- ------|
a- ------|
E- down 2

Once you have that it's a real simple song.

These are the chords. Figure out the strumming yourself.
Verse:
e--0-------------0------------------0-------------|
b--0-------------0------------------0-------------|
g--0-------------0------------------0-------------|
d--4-------------4------------------2-------------|
a--4-------------4------------------2-------------|
E--4-------------4------------------2-------------|
  All I wanna say is your the satellite in my life

  Lost inside your eyes the vision never dies

  Oh just take my hand we'll float and never land

e----------------0---0---0------------------0-----|
b----------------0---0---0------------------0-----|
g----------------0---0---0------------------0-----|
d----------------0---2---4------------------7-----|
a----------------0---2---4------------------7-----|
E----------------0---2---4------------------7-----|
  Then I hear you say    let's live for the moment.........
              this time. Why don't you just make up........

e--0----------------------------------------------|
b--0----------------------------------------------|
g--0----------------------------------------------|
d--0----------------------------------------------|
a--0----------------------------------------------|
E--0----------------------------------------------|
  your mind
Chorus:
e--0--------------0---------------------0---------0-------------|
b--0--------------0---------------------0---------0-------------|
g--0--------------0---------------------0---------0-------------|
d--4--------------7---------------------0---------0-------------|
a--4--------------7---------------------0---------0-------------|
E--4--------------7---------------------0---------0-------------|
      You make my headspin, you make my headspin  why, why do......

e--0---------------0---------------------0--------|
b--0---------------0---------------------0--------|
g--0---------------0---------------------0--------|
d--4---------------7---------------------0--------|
a--4---------------7---------------------0--------|
E--4---------------7---------------------0--------|
  you. You make my headspin, you make my headspin

Bridge:
e--0-------------0-------------------------------|
b--0-------------0-------------------------------|
g--0-------------0-------------------------------|
d--9-------------0-------------------------------|
a--9-------------0-------------------------------|
E--9-------------0-------------------------------|
  Did i hear you say you wanna be
  alone. Was it some mistake how will we ever know now
  I can hear you scream at me scream at meeeeeeeee.

e--0------0-----------------0---------------------|
b--0------0-----------------0---------------------|
g--0------0-----------------0---------------------|
d--4------7-----------------0---------------------|
a--4------7-----------------0---------------------|
E--4------7-----------------0---------------------|
  I'm not perfect, I'm not perfect

  I'm not perfect, I'm not perfeeeeeeect  no

Chorus

e--0--------------------------------0----------------------0----------0--|
b--0--------------------------------0----------------------0----------0--|
g--0--------------------------------0----------------------0----------0--|
d--4--------------------------------7----------------------0----------4--|
a--4--------------------------------7----------------------0----------4--|
E--4--------------------------------7----------------------0----------4--|
  Did I ever mean something, did i ever mean something to youuuuuuuuu?
            
Submit corrections


        Headspin lessons Hard to play? Try these video lessons and learn fast Headspin lessons
        
↑ Back to top | Tablatures and chords for acoustic guitar and electric guitar, ukulele, drums are parodies/interpretations of the original songs. You may use it for private study, scholarship, research or language learning purposes only